Give Kudos?
Are you sure you want to give kudos to adevilsdevil?

Add To Songbook?
Are you sure you want to add this song to your songbook?


3,430 bands | 16,491 songs
Search: Register FREE! | Login
Browse Songs:
Browse Bands:
Tool Panel
Discuss This Song

1 2 3 4 5



Sammy Hagar - Heavy Metal (Tab)
Submitter: adevilsdevil (132) on 4/13/20
Month Views: 47 | Total Views: 78
Help! We need a moderator for this artist. | Report This Song?
Song Tools

Comment

Songbook

Kudos

Show Chords

Print

Heavy Metal
 by: Sammy Hagar
  Tabbed by: adevilsdevil666 at gmail.com
 
 standard tunning
 


INTRO
                  A5      A5  D5    A5                  A5   D5
e|--------------------------------------------------------------|
B|--------------------------------------------------------------|
G|----------------------------7------------------------------7--|
D|----------------7-------7---7-----7--------------------7---7--|
A|-----4p-0-------7-------7---5-----7--------4p-0--------7---5--|
E|--3-5-----3p-0--5---17\-5---------5---0-3-5------3p-0--5------|
 
 
 VERSE
    A5                A5  D5   A5                  A5  D5
e|---------------------------------------------------------|
B|---------------------------------------------------------|
G|------------------------7----------------------------7---|
D|--7-----------------7---7----7-------------------7---7---|
A|--7------4p-0-------7---5----7--------4p-0-------7---5---|
E|--5--3-5------3p-0--5--------5---0-3h5-----3p-0--5-------|
 
    A5                A5  D5   A5                  A5  D5
e|---------------------------------------------------------|
B|---------------------------------------------------------|
G|------------------------7----------------------------7---|
D|--7-----------------7---7----7-------------------7---7---|
A|--7------4p-0-------7---5----7--------4p-0-------7---5---|
E|--5--3-5------3p-0--5--------5---0-3h5-----3p-0--5-------|
 

    E5              G5       D5
e|----0----------------------------|
B|----0----------------------------|
G|---------------------------7-----|
D|--2------------------------7-----|
A|--2---------------5-5-5-5--5-----|
E|--0---------------3-3-3-3--------|
 
    A5                     A5  D5   A5                A5  D5
e|------------------------------------------------------------|
B|------------------------------------------------------------|
G|-----------------------------7--------------------------7---|
D|--7----------------------7---7----7-----------------7---7---|
A|--7-----------4p-0-------7---5----7------4p-0-------7---5---|
E|--5-----0-3-5------3p-0--5--------5---3h5-----3p-0--5-------|2x's
 
 
PRECHORUS
                  G5                  G5               G5     E5    G5
e|-----------------------------------------------------------------------|
B|----------------12-12---------------12-12------------12-12-------------|
G|----------------12-12---------------12-12------------12-12-------------|
D|----------------12-12---------------12-12------------12-12--2-2---5-5--|
A|------------/10-10-10-----------/10-10-10--------/10-1010---2-2---5-5--|
E|--0-0-2-0-3------------0-0-2-0-3----------0-0-2-0-3---------0-0---3-3--|
 
 
CHORUS
 
   A5             D5  G5  D5 G5 F#5 G5 A5             D5  G5  D5 G5  F# G5
e|------------------------------------------------------------------------|
B|------------------------------------------------------------------------|
G|----------------7-------7---------------------------7-------7-----------|
D|-7--7-7-7-7-7-7-7---5---7--5---4--5--7--7-7-7-7-7-7-7---5---7--5---4--5-|
A|-7--7-7-7-7-7-7-5---5---5--5---5--5--7--7-7-7-7-7-7-5---5---5--5---5--5-|
E|-5--5-5-5-5-5-5-----3------3---2--3--5--5-5-5-5-5-5-----3------3---2--3-|
      *p.m.     *                         *p.m.     *
 
    A5             D5  G5  D5    F#5 G5  F5
e|----------------------------------------------|
B|----------------------------------------------|
G|-----------------7-------7--------------------|
D|--7--7-7-7-7-7-7-7---5---7--5---4--5---3------|
A|--7--7-7-7-7-7-7-5---5---5--5---5--5---3------|
E|--5--5-5-5-5-5-5-----3------3---2--3---1------|
       *p.m.     *
 
VERSE
    A5                 A5  D5   A5                 A5  D5
e|---------------------------------------------------------|
B|---------------------------------------------------------|
G|-------------------------7---------------------------7---|
D|--7------------------7---7----7------------------7---7---|
A|--7-------4p-0-------7---5----7--------4p-0------7---5---|
E|--5--0-3h5-----3-0---5--------5---3h5-------3-0--5-------|
 

    A5                A5  D5  A5                   A5  D5
e|---------------------------------------------------------|
B|---------------------------------------------------------|
G|------------------------7----------------------------7---|
D|--7-----------------7---7----7-------------------7---7---|
A|--7------4p-0-------7---5----7--------4p-0-------7---5---|
E|--5--03-5-----3p-0--5--------5---0-3h5-----3p-0--5-------|
 
   E5             G5        D5
e|--------------------------------|
B|--------------------------------|
G|--------------------------7-----|
D|--2-----------------------7-----|
A|--2--------------5-5-5-5--5-----|
E|--0--------------3-3-3-3--------|
 
    A5                     A5  D5   A5               A5   D5
e|------------------------------------------------------------|
B|------------------------------------------------------------|
G|-----------------------------7--------------------------7---|
D|--7----------------------7---7----7-----------------7---7---|
A|--7-----------4p-0-------7---5----7------4p-0-------7---5---|
E|--5-----0-3-5------3p-0--5--------5---3h5-----3p-0--5-------|2x's
 
 
PRECHORUS
                  G5                  G5               G5     E5    G5
e|-----------------------------------------------------------------------|
B|----------------12-12---------------12-12------------12-12-------------|
G|----------------12-12---------------12-12------------12-12-------------|
D|----------------12-12---------------12-12------------12-12--2-2---5-5--|
A|------------/10-10-10-----------/10-10-10--------/10-1010---2-2---5-5--|
E|--0-0-2-0-3------------0-0-2-0-3----------0-0-2-0-3---------0-0---3-3--|
 
 
CHORUS
 
   A5             D5  G5  D5 G5 F#5 G5 A5             D5  G5  D5 G5  F# G5
e|------------------------------------------------------------------------|
B|------------------------------------------------------------------------|
G|----------------7-------7---------------------------7-------7-----------|
D|-7--7-7-7-7-7-7-7---5---7--5---4--5--7--7-7-7-7-7-7-7---5---7--5---4--5-|
A|-7--7-7-7-7-7-7-5---5---5--5---5--5--7--7-7-7-7-7-7-5---5---5--5---5--5-|
E|-5--5-5-5-5-5-5-----3------3---2--3--5--5-5-5-5-5-5-----3------3---2--3-|
      *p.m.     *                         *p.m.     *
 
    A5             D5  G5  D5    F#5 G5  F5
e|----------------------------------------------|
B|----------------------------------------------|
G|-----------------7-------7--------------------|
D|--7--7-7-7-7-7-7-7---5---7--5---4--5---3------|
A|--7--7-7-7-7-7-7-5---5---5--5---5--5---3------|
E|--5--5-5-5-5-5-5-----3------3---2--3---1------|
       *p.m.     *
 Comments (click here to add a non-facebook comment)
Home | FAQs | Privacy | Terms | Contact
Top 100 Tab Sites