Give Kudos?
Are you sure you want to give kudos to Deleted Member?

Add To Songbook?
Are you sure you want to add this song to your songbook?


3,424 bands | 16,463 songs
Search: Register FREE! | Login
Browse Songs:
Browse Bands:
Tool Panel
Discuss This Song

1 2 3 4 5



Ryan Adams - Oh My Sweet Carolina (Tab)
Submitter: Deleted Member (0) on 5/4/02 1 comment
Month Views: 6 | Total Views: 3,263
Moderator: josielittle | Report This Song?
Song Tools

Comment

Songbook

Kudos

Show Chords

Print

Ryan is the most talented musician Alive!

This is the complete tab for probably the best song on Ryans 3rd
album, "Heartbreaker". It is almost 100% accurate, any comments
or suggestions are welcome. ENJOY!! nthe tabs, the correct note
appears directly below the place or word it should be played at.
btw, Hi to Sandy T

Main Riff:

e|-------------------------------|
B|-----------3-------3-----------|
G|--------2--2h4-----2-----------|
D|--0-2h4--------2h4---4p2--2p0--|
A|--0----------------------------|
E|-------------------------------|


Main riff x 2

Verse 1:

 |Well I went down to Houston and I stopped in San Antone

e|---------------------------------------------------------|
B|---------------------------------------------3----------3|
G|----------------------------------0---------------------2|
D|-----0---------------------------------------------0-----|
A|---------------------------------------------------------|
E|---------------------------------------------------------|

 |I passed up the station for the bus

e|-----------------------------------------------------|
B|----------3-----------------------------3------------|
G|----------2-----------------------------2--2---------|
D|---0--------------------------------0h2--------------|
A|------------------------------------0----------------|
E|-----------------------------------------------------|

 |Trying to find me something but I wasn't sure just what

e|------------------------------------------------------|
B|------------3-----------------------------------------|
G|4--------------------------------------------------0--|
D|--------------------0-------4-----2------0------------|
A|------------------------------------------------------|
E|------------------------------------------------------|

 |Man I ended up with pockets full of dust

e|--------------------------------------------------|
B|----------------------------------------------3---|
G|------------------------------------------------2-|
D|------0-----------------------------0-----2h4-----|
A|--------------------0-----------------------------|
E|--------------------------------------------------|

Verse 2:

 |So I went on to Cleveland and I ended up insane

e|-----------------------------------------------|
B|----------3---------------3-----0--------------|
G|---2----------------------------0----------2---|
D|---0---------------------------------------0---|
A|-----------------------------------------------|
E|-----------------------------------------------|

 |Bought a borrowed suit and learned to dance

e|-----------------------------------------------------|
B|-----------------------------------------------------|
G|-------------------------------------------------2---|
D|0-------------------------------------------0h2----2-|
A|--------------------------------------0--------------|
E|-----------------------------------------------------|

 |  I was spendin' money like the way it likes to rain

e|3--------------------------------------------------|
B|0--------3-----------------------------------------|
G|0----------------2------------------------------0--|
D|-----------------0---------------------------------|
A|-----------------------4--------2------0-----------|
E|---------------------------------------------------|

 |Man I ended up with pockets full of cane

e|-------------------------------------------------|
B|------3-----------------------------3--------3---|
G|------2-----------------------------2----------2-|
D|------0-----------------------------0----2h4-----|
A|--------------------0----------------------------|
E|-------------------------------------------------|

Chorus

     Bm    G       D     Bm        G          A
Oh my  swe-eet Carolina,   what compels me to go

     Bm    G        D               Bm      A        G
Oh my  swe-eet disposition, may you one day carry me home


Play main riff x 2 Here

Verse 3:

        D                         G                  D
I ain't never been to Vegas but I gambled all my life

                                             A
Building newsprint boats I raced in sewer mains

G                 D               Bm     A         G
Trying to find me something but I wasn't sure just what

      D                 A                 D
Funny how they say that some things never change

(repeat chorus)

Verse 4:
Up here in the city, it feels like things are closin' in
The sunset's just my light bulb burning out 
I miss Kentucky and I miss my family
All the sweetest winds they blow across the south

(repeat chorus)

During the verses 3 and 4, add small hammer on such as 

D|--2h4--|

between some chords to make it sound better.

I thinks this tab is 100% ok, but if there are any suggestions or corrections then let me know

Daniel G
 Comments (click here to add a non-facebook comment)
capo 2nd fret, really easy
-jfallahi | 9/27/2005
Home | FAQs | Privacy | Terms | Contact
Top 100 Tab Sites