Give Kudos?
Are you sure you want to give kudos to randy_floyd?

Add To Songbook?
Are you sure you want to add this song to your songbook?


3,424 bands | 16,463 songs
Search: Register FREE! | Login
Browse Songs:
Browse Bands:
Tool Panel
Discuss This Song

1 2 3 4 5



Ryan Adams - Nightime Gals (Chord)
Submitter: randy_floyd (11) on 1/14/03
Month Views: 22 | Total Views: 3,465
Moderator: josielittle | Report This Song?
Song Tools

Comment

Songbook

Kudos

Show Chords

Print

ryan adams
song:  nightime gals

  E          Em7
E-0-----------2-----------
A---2-------2---0---------     "E Riff"
D-----2---2-------2-----2-
G-------1-----------2P1---
  1 2 3 4 5 6 1 2 3 4 5 6  ---Beats



  G#m               A                 Am                D7
E-4-----------------5-----------------5------------------------
A---6-------6---------7-------7---------7-------7--------------
D-----6---6-------6-----7---7-------7-----7---7-------7-0------
G-------4-------4---------6-------6---------5-------5-----2----
B-------------4-----------------5-----------------5---------1--
e-------------------------------------------------------------2 (Hold)

The next is for the "Silver and Gold" section of the chorus. Repeat the
G-C(add 9) section 3 times, then play the 4th time as the lead in back to
the verse.  

G          C(add 9)      G           G/F#
E-3----------------------|-3-----------2-----------
A-------------3----------|-------------------------
D------------------------|-------------------------
G---0-------0---0-------0|---0-------0---0-------0-
B-----3---3-------3---3--|-----3---3-------3---3---
e-------3-----------3----|-------3-----------3-----
1 2 3 4 5 6 1 2 3 4 5 6  1 2 3 4 5 6 1 2 3 4 5 6 6



E riff
All the women that I know
E riff
are mostly nighttime gals
G#m                        A
lay their head down on the bar
              Am             D7
'cause of the guy before
            G
silver and gold 
           C9         G
still must mean something
    C9          G
to people with nothin'
        C9             G
does it mean anything
G/F#   E riff (starts over)
to    you-ou-ou-ou-ou?
E riff
And all the people that I know
E riff
are mostly nighttime folks
G#m                          A
lay their clothes out on the tub
            Am               D7
next to the paycheck stub
            G
silver and gold 
           C9         G
still must mean something
    C9          G
to people with nothin'
        C9             G
does it mean anything
G/F#   E riff
to    you? 
 Comments (click here to add a non-facebook comment)
Home | FAQs | Privacy | Terms | Contact
Top 100 Tab Sites