Give Kudos?
Are you sure you want to give kudos to randy_floyd?

Add To Songbook?
Are you sure you want to add this song to your songbook?


3,424 bands | 16,463 songs
Search: Register FREE! | Login
Browse Songs:
Browse Bands:
Tool Panel
Discuss This Song

1 2 3 4 5



Ryan Adams - Make Me List (Chord)
Submitter: randy_floyd (11) on 1/14/03
Month Views: 16 | Total Views: 2,403
Moderator: josielittle | Report This Song?
Song Tools

Comment

Songbook

Kudos

Show Chords

Print

ryan adams
song:  make me a list

he sometimes plays this song live

E/A)
Make me a list of all the (Am) things that (B/Am) I (C) don't want to (G) know, 
to (Fadd2) keep me (A) sane. (E/A)

(E/A)
Make me a wish that I would (Am) never have (B/Am) to (C) know, what it (G) is you do, 
when I (Fadd2) have to (A) go. (E/A)

--
'cuz (Fmaj 7/6) I know a thing or two, (E/A) my (Fmaj 7/6) birthday it keeps falling 
on the (A*) day before yours does (F) too . . . (Fm) ooo (E/A) ooo

(F#addE) and all my (Bb) daydreams (A) feel so (F#addE) nice, medi (Bb) cate my (A) 
worried (F#addE) light, something (Bb) else for (A) me to, (D**) hold on (A) to. (E/A)
----------------
verse2:

(E/A)
Make me a plan of how I'm (Am) supposed (B/Am) to (C) assume, that its (G) no more, 
to never (Fadd2) hear from (A) you. (E/A)
(E/A)
I'll understand I will be (Am) here (B/Am) for (C) you, when the (G) lights go down, 
in some strange (Fadd2) part of (A) town.

--
'cuz (Fmaj 7/6) I know a thing or two, (E/A) my (Fmaj 7/6) birthday it keeps falling on 
the (A*) day before yours does (F) too . . . (Fm) ooo (E/A) ooo

(F#addE) and all my (Bb) daydreams (A) feel so (F#addE) nice, medi (Bb) cate my (A) 
worried (F#addE) light, something (Bb) else for (A) me to, (D**) hold on (A) to. (E/A) 
(hold on to x2)

-------------------
Chords: 

E/A
-----0---0-------------------:
----2----2-------------------:
----2----2-------------------:
----2----2-------------------:
0-----------------------------:
---------------0-----3-------:


B/Am
e----------0------------|
B----------1------------|
G----------2------------|
D----------X------------|
A----------2------------|
E----------X------------|


Fadd2
e----------0------------|
B----------1------------|
G----------0------------|
D----------3------------|
A----------X------------|
E----------X------------|


Fmaj 7/6
e----------0------------|
B----------3------------|
G----------2------------|
D----------3------------|
A----------0------------|
E----------X------------|


A* 
e----------0------0------0------0-----------|
B----------2------2------2------2-----------|
G----------2------2------2------2-----------|
D----------2------2------2------2-----------|
A----------0------0------0------0-----------|
E----------X------4-------3------2----------|


F#addE 
e----------0------------|
B----------2------------|
G----------3------------|
D----------4------------|
A----------X------------|
E----------2------------|



e----------x---------x---|
B----------5--------3----|
G----------4--------2----|
D----------5--------0----|
A----------x--------X----|
E----------X--------X----|

 
 Comments (click here to add a non-facebook comment)
Home | FAQs | Privacy | Terms | Contact
Top 100 Tab Sites