Give Kudos?
Are you sure you want to give kudos to Alexander_Meier?

Add To Songbook?
Are you sure you want to add this song to your songbook?


3,425 bands | 16,469 songs
Search: Register FREE! | Login
Browse Songs:
Browse Bands:
Tool Panel
Discuss This Song

1 2 3 4 5



Ryan Adams - Magnolia Mountain (Tab)
Submitter: Alexander_Meier (0) on 8/11/05
Month Views: 2 | Total Views: 15,963
Moderator: josielittle | Report This Song?
Song Tools

Comment

Songbook

Kudos

Show Chords

Print

Title     : Magnolia Mountain
Artist    : Ryan Adams
Album     : Cold Roses
Capo      : none
Setting   : E-A-D-G-B-E
Tabbed by : Ferry Falkenburg
-------------------------------------------------

Ryan Adams - Magnolia Mountain
------------------------------

tabbed by Ferry Falkenburg (ferry at ryan-adams.org)

Chords:
    Bm       D        A        E        G      Asus4     C#m      G#m
e --2--    --2--    --0--    --0--    --3--    --0--    --4--    --4--
B --3--    --3--    --2--    --0--    --3--    --3--    --5--    --4--
G --4--    --2--    --2--    --1--    --0--    --2--    --6--    --4--
D --4--    --0--    --2--    --2--    --0--    --2--    --6--    --6--
A --2--    -----    --0--    --2--    --2--    --0--    --4--    --6--
E -----    -----    -----    --0--    --3--    -----    -----    --4--

    F#       B      Esus4
e --2--    --2--    --0--
B --2--    --4--    --0--
G --3--    --4--    --2--
D --4--    --4--    --2--
A --4--    --2--    --2--
E --2--    -----    --0--



Intro:
e||-----------------------------------------------------------------------|
B||------0---------------0-------0--------0-------------------------------|
G||------9-------8-------9-------9--------9---9---------------------------|
D||-11-------9-------7--------------------------6h7p6h7/9------2----------|
A||--------------------------11------9---------------------5---2h4--2-----|
E||--------------------------------------------------------------------0--|


e||-------0--0--0------------------||
B||-------0--0--0------------------||
G||--1h2--2--2--1------------------||
D||--2-------2--2------------------||
A||----------2--2------------5-----||
E||----------0--0----0--2/4--------||


   Bm               D
   I wanna go to Magnolia Mountain
   A                 E
   Lay my weary head down
               G            D                  A       Asus4   A
   Down on the rocks on the mountain my savior made


   Bm                 D
   Steady my soul and ease my worry
   A
   Hold me when I rattle
          E
   Like a hummingbird humming
   G                          D                  A      Asus4   A
   Tie me to the rocks on the mountain my savior made


   C#m    G#m
   Lie to me
   D         A
   Sing me a song
   C#m       G#m            F#
   Sing me a song until the morning comes
          C#m     G#m
   If the morning comes
            D      A
   Will you lie to me
            C#m
   Will you take me to your bed
            G#m                  F#
   Will you lay me down till I'm heavy
                                                   A   Asus4  A  E
   Like the rocks on the riverbed that my savior made
   C#m B A G#m F#m E  Esus4  E
   For us

   Bm               D
   I want to be the bluebird singing
   A                           E
   Singing to the roses in the yard
       G                     D               A   Asus4   A
   The roses in the yard her father grew for her
       Bm                     D                  A
   But it's been raining that Tennessee honey so long
                      E
   I got too heavy to fly
       G                 D                    A     Asus4  A
   But ain't no bluebird ever get to heavy to sing


   C#m    G#m
   Lie to me
   D         A
   Sing me a song
   C#m       G#m            F#
   Sing me a song until the morning comes
          C#m           G#m
   If the morning don't come
            D      A
   Will you lie to me
            C#m
   Will you take me to your bed
            G#m                  F#
   Will you lay me down till I'm heavy
                                                   A   Asus4  A  E
   Like the rocks on the riverbed that my savior made
   C#m B A G#m F#m E  Esus4  E
   For us


   A  Asus4  A  E  C#m B A G#m F#m E  Esus4   E



   Bm                          D
   We burned the cotton fields down in the valley
       A                         E
   And ended up with nothing but scars
       G
   The scars became the lessons
           D
   That we gave to our children
   A     Asus4  A
   After the    war
   
                   Bm
   But there ain't nothing
                        D
   But the truth on the Magnolia Mountain
         A              E
   Where nobody ever dies
   G                   D
   Steady our soul and ease our worry
   A               Asus4 A
   They got a room for   you


   C#m    G#m
   Lie to me
          D      A
   Like I lie to you
   C#m     G#m            F#
   Calm me down until the morning comes
              C#m           G#m
   And if the morning don't come
   D      A
   Lie to me
            C#m
   Will you take me to your bed
            G#m                  F#
   Will you lay me down till I'm heavy
                                                   A   Asus4  A  E
   Like the rocks on the riverbed that my savior made
   C#m B A G#m F#m E  Esus4   E
   For us
   
   A  Asus4  A  E  C#m B A G#m F#m E  Esus4   E

 Comments (click here to add a non-facebook comment)
Home | FAQs | Privacy | Terms | Contact
Top 100 Tab Sites