Give Kudos?
Are you sure you want to give kudos to aussief?

Add To Songbook?
Are you sure you want to add this song to your songbook?


3,408 bands | 16,354 songs
Search: Register FREE! | Login
Browse Songs:
Browse Bands:
Tool Panel
Discuss This Song

1 2 3 4 5





Rolling Stones - Time Is On My Side.. (Tab)
Submitter: aussief (87) on 3/18/18 1 comment
Month Views: 8 | Total Views: 485
Moderator: EMRLDEYZS | Report This Song?
Song Tools

Comment

Songbook

Kudos

Show Chords

Print

  Words and Music by Norman Meade AKA. Jerry Ragovoy

INTRO
   Bb                                        Dm
E|-15b(18)-15b(18)-15b(16)-13--------------|-13----------------------|
B|-----------------------------13----------|-----13r(11)-------------|
G|---------------------------------14b(17)-|-------------12b(14)-----|
D|-----------------------------------------|----------------------15-|
A|-----------------------------------------|-------------------------|
E|-----------------------------------------|-------------------------|

   G7
E|----------13----------13----------13-----------13-----------13------------13-|
B|-----------------------------------------------------------------------------|
G|-15b(16)------15b(16)-----15b(16)------15b(16)-----15b(16)-------15b(16)-----|
D|-----------------------------------------------------------------------------|
A|-----------------------------------------------------------------------------|
E|-----------------------------------------------------------------------------|

    C7
E|-------------------------------------------------|
B|---------13----------13-11-----------------13--11|
G|-15b(17)-----15b(17)-------13-------15b(17)------|
D|--------------------------------15---------------|
A|-------------------------------------------------|
E|-------------------------------------------------|

 F             Bb           C
Time is on my side, yes it is
  F             Bb          C
 Time is on my side, yes it is
 Dm              C 
 Now you always say
  Dm                  G9
 That you want to be free
      C            Bb
 But you'll come running back (said you would baby)
  C            Bb
 You'll come running back (I said so many times before)
  C            Bb            C  Bb/D  C7/E
 You'll come running back to me

      F             Bb           C
 Oh, time is on my side, yes it is
  F             Bb           C
 Time is on my side, yes it is
  Dm                         C
 You're searching for good times
  Dm                C
 But just wait and see
  C            Bb  
 You'll come running back (I won't have to worry no more)
  C            Bb
 You'll come running back (spend the rest of my life with you, baby)
  C            Bb            C  Bb/D  C7
 You'll come running back to me

  Bb        F7
 Go ahead, go ahead and light up the town
     Bb7
 And baby, do everything your heart desires
  F7
 Remember, I'll always be around
 Bb7
 And I know, I know Like I told you so many times before
  Dm
 You're gonna come back, baby
 Cause I know
  G7                      
 You're gonna come back knocking
         C7
 Yeah, knocking right on my door
 Yes, yes!
        F             Bb           C
 Well, time is on my side, yes it is
  F             Bb          C
 Time is on my side, yes it is

  Dm              C
 Cause I got the real love
 Dm                 C
 The kind that you need
  C            Bb
 You'll come running back (said you would, baby)
  C            Bb
 You'll come running back (I don't always said you would)
  C            Bb
 You'll come running back (I won't have to worry no more)
      F                      Bb             C
 Yes time, time, time is on my side, yes it is
  F                      Bb             C
 Time, time, time is on my side, yes it is
     F                         Bb           C
 Oh, time, time, time is on my side, yes it is
          F                         Bb           C
 I said, time, time, time is on my side, yes it is
      F                         Bb
 Oh, time, time, time is on my side
        F                         Bb    C    F
 Yeah, time, time, time is on my side 


 An F. K. Tab,,,,Enjoy!!!!!!
 
 Comments (click here to add a non-facebook comment)
Yeah played this one to death when I first heard it, good one!
-cotswoldkid | 3/18/2018
Home | FAQs | Privacy | Terms | Contact
Top 100 Tab Sites