Give Kudos?
Are you sure you want to give kudos to alblues?

Add To Songbook?
Are you sure you want to add this song to your songbook?


3,408 bands | 16,356 songs
Search: Register FREE! | Login
Browse Songs:
Browse Bands:
Tool Panel
Discuss This Song

1 2 3 4 5





Rolling Stones - Fortune Teller (Chord)
Submitter: alblues (7) on 2/15/05
Month Views: 10 | Total Views: 3,390
Moderator: EMRLDEYZS | Report This Song?
Song Tools

Comment

Songbook

Kudos

Show Chords

Print

              fortune teller  the rolling stones 

  tabber al fisher or alblues OF DAYTONA FLORIDA



intro
     A 
-----5----3--3--4--2--2---------------------|
-----5----3--3--5--3--3---------------------|
-----6----4--4--4--2--2-5----5-5---7---7-7--|   
-----7----5--5----------5----5-5---7---7-7--|  
------------------------3----3-3---5---5-5--| 
--------------------------------------------|



MAIN RHY

--5---5-----3---3----4--4-------------| 
--5---5-----3---3----5--5-----7---5---| 
--6---6-----4---4----4--5-----7---5---|  
--7---7-----5---5---------------------| 
--------------------------------------| 
--------------------------------------|

 INTRO

MAIN RIFF

WENT TO THE FORTUNE TELLER
TO HAVE MY FORTUNE READ I DIDNT KNOW WHAT TO TELLER
I HAD A DIZZY FEELING IN MY HEAD

MAIN RIFF

 THEN SHE TOOK A LOOK AT MY PALM
SHE SAID SONNY YOU FEEL KINDA WARM
SHE LOOKED IN TO HER CRYSTAL BALL
   (SAID YOUR IN LOVE)-------------RHY-2

RHY 2

--2--2----0-----| 
--3--3----0-----| 
--2--2----1-----| 
----------2-----| 
----------2-----| 
----------------|

RHY -1

 I SAID HOW COULD THIS BE SO
NOT WITH ALL THE GIRLS I KNOW
SHE SAID WHEN THE NEXT ONE ARIVES
YOULL BE LOOKING INTO HER EYES 


   (A-H A-HHH A 4X) BACK UP VOCALS

MAIN RHY 

I LEFT THERE IN A HURRY
LOOKING FOR MY BIG SURPRISE
THE NEXT DAY I DISCOVERD
THAT THE FORTUNE TELLER TOLD ME A LIE

MAIN RHY

I HURRIED BACK DOWN TO THA WOMAN
AS MAD AS I COULD BE
I TOLD HER I DIDNT SEE ANY BODY
WHY'D SHE MAKE A FOOL OUT OF ME

MAIN RHY

THEN SOMETHING STRUCK ME
AS IF IT CAME FROM UP ABOVE
WHILE LOOKING AT THE FORTUNE TELLER
I FEEL IN LOOOVE---------------------RHY-2

MAIN RHY

NOW IM A HAPPY FELLOW
WELL IM MARRIED TO THE FORTUNE TELLER
WERE HAPPY AS COULD BE 
NOW I GET MY FORTUNE READ FOR FREE-----RHY-2

INTRO

AH AH AH AH BACK UP VOCALS

 
    
 Comments (click here to add a non-facebook comment)
Home | FAQs | Privacy | Terms | Contact
Top 100 Tab Sites