Give Kudos?
Are you sure you want to give kudos to microsysinc?

Add To Songbook?
Are you sure you want to add this song to your songbook?


3,391 bands | 16,216 songs
Search: Register FREE! | Login
Browse Songs:
Browse Bands:
Tool Panel
Discuss This Song

1 2 3 4 5





Rolling Stones - Blinded By Rainbows (w/ Intro) (Chord)
Submitter: microsysinc (28) on 7/7/09
Month Views: 28 | Total Views: 3,013
Moderator: EMRLDEYZS | Report This Song?
Song Tools

Comment

Songbook

Kudos

Show Chords

Print

Blinded by Rainbows  -  Rolling Stones  (Voodoo Lounge CD)

Video  http://www.youtube.com/watch?v=nsI8JGcmLbA

*** Electric guitar w/ Overdrive and slight Phasar ***

Intro (pick by chords)
            G          D          C              
E-----------3----------2----------0-----------|
D-----------3----------3----------1-----------|
G--------0----------2----------0--------------|    2 times
D-----0----------0----------2-----------------|
A--2----------0----------3--------------------|
E---------------------------------------------|

Verse 1
                      G    Gadd11   G
Did you ever feel the pain,
                      C
that he felt upon the cross?
                      Dsus4    D
Did you ever feel the knife,
                            C
tearing flesh that's all so soft?
                       Em      C
Did you ever touch the night?
                       Em      C 
Did you ever count the cost?
                     Em      C/G
Do you hide away the feeling?
                     Dsus4  D    Dsus2  D
Put down paradise as lost.

Chorus 1
            G          D   C
Yeah you're blinded by rainbows.
G            D    C
Watching the wind blow.
G          D   C
Blinded by rainbows.
       Em
Do you dream at night? 
       Em7                      
Do you sleep at night?
  C       Am7
I doubt it.

Verse 2
Did you ever feel the blast, 
as the semtex bomb goes off? 
Do you ever hear the screams, 
as the limbs are all torn off? 
Did you ever kiss the child, 
who just saw his father shot? 
Do you ever shed a tear, 
as the war drags on and on?

Bridge 1
Do you ever touch the night? 
Or is it just another job? 
Do you feel the final hours? 
Put down paradise as lost. 

Chorus 2
Yeah you're blinded by rainbows, 
and faces in windows. 
Blinded by rainbows. 
Do you dream at night? 
Do you sleep at night? 
I doubt it. 

Instrumental

Bridge 2
Do you ever fear the night? 
Could it be the war is lost? 
Do you fear the final hour?. 
Do you kneel before the cross? 

Chorus 3
You're blinded by rainbows, 
and watching the wind blow.
Blinded by rainbows. 
Do you dream at night? 
Do you scream at night? 
Do you smell of fear? 
Is your conscience clear? 
Are you caked in sweat? 
Are your clothes all wet? 
Do you see the light? 
Is the end in sight? 
See the face of Christ? 
Enter paradise. 
I doubt it.

Chord Chart
    Am7    C    C/G  Dsus2   D   Dsus4   Em   Em7    G   Gadd11
E----0-----0-----3-----0-----2-----3-----0-----0-----3-----3-----|
D----1-----1-----1-----3-----3-----3-----0-----3-----3-----1-----|
G----0-----0-----0-----2-----2-----2-----0-----0-----0-----0-----|
D----2-----2-----2-----0-----0-----0-----2-----2-----0-----0-----|
A----0-----3-----3-----------------------2-----2-----2-----2-----|
E----------------------------------------0-----0-----3-----3-----|
 
 Comments (click here to add a non-facebook comment)
Home | FAQs | Privacy | Terms | Contact
Top 100 Tab Sites