Give Kudos?
Are you sure you want to give kudos to yinielin?

Add To Songbook?
Are you sure you want to add this song to your songbook?


3,430 bands | 16,491 songs
Search: Register FREE! | Login
Browse Songs:
Browse Bands:
Tool Panel
Discuss This Song

1 2 3 4 5



REO Speedwagon - Flying Turkey Trot (Tab)
Submitter: yinielin (3) on 8/7/03
Month Views: 18 | Total Views: 5,243
Moderator: EMRLDEYZS | Report This Song?
Song Tools

Comment

Songbook

Kudos

Show Chords

Print

By:Yinielin
Reo SpeedWagon, Flying Turkey Trot

This is the lead lick played throughout the song. 

| B* = bend with pinched harmonic |




E---------------------------------------------------------
B---------------------------------------------------------
G-------------3b*-----------------------------------------
D-------5-3-5------3---3h5-----5-3-5---5-5---5-5---5-5----
A----------------5---5---------------2-----3-----4-----5--
E-0h1/3--------------------3------------------------------

E---------------------------------------------------------
B---------------------------------------------------------
G-------------3b*-----------------------------------------
D-------5-3-5------3---3h5-----5-3-5---5-5---5-5---5-5----
A----------------5---5---------------2-----3-----4-----5--
E-0h1/3--------------------3------------------------------


E---------------------------------------------------------
B---------------------------------------------------------
G-------------5b*-----------------------------------------
D-------7-5-7--------5---5h7----7-5-7---7-7---7-7---7-7---
A------------------7---7--------------4-----5-----6-----7-
E-0h3/5----------------------5----------------------------


E---------------------------------------------------------
B---------------------------------------------------------
G-------------5b*-----------------------------------------
D-------7-5-7--------5---5h7----7-5-7---7-7---7-7---7-7---
A------------------7---7--------------4-----5-----6-----7-
E-0h3/5----------------------5----------------------------

E---------------------------------------------------------
B---------------------------------------------------------
G-9-9--7--4--2-2--1---------------------------------------
D-9-9--7--4--2-2--2---------------------------------------
A-7-7--5--2--0-0--2---------------------------------------
E-----------------0---------------------------------------

E---------------------------------------------------------
B---------------------------------------------------------
G-9-9--7--4--2-2--x-x-2-2-x-2-----------------------------
D-9-9--7--4--2-2--x-x-2-2-x-2-----------------------------
A-7-7--5--2--0-0--x-x-0-0-x-0-----------------------------
E---------------------------------------------------------





 Comments (click here to add a non-facebook comment)
Home | FAQs | Privacy | Terms | Contact
Top 100 Tab Sites