Give Kudos?
Are you sure you want to give kudos to texasisalive?

Add To Songbook?
Are you sure you want to add this song to your songbook?


3,420 bands | 16,457 songs
Search: Register FREE! | Login
Browse Songs:
Browse Bands:
Tool Panel
Discuss This Song

1 2 3 4 5



REO Speedwagon - Can't Fight This Feeling (Bass)
Submitter: texasisalive (7) on 8/12/03
Month Views: 9 | Total Views: 2,183
Moderator: EMRLDEYZS | Report This Song?
Song Tools

Comment

Songbook

Kudos

Show Chords

Print

REO Speedwagon
Can't Stop This Feeling


INTRO: Rest
VERSE 1: Rest

1ST PRE-CHORUS:
|---------|---------|---------|-------------|-------------|
|---------|---------|---------|-------------|---------4-4-|
|-5-------|-4-------|-5-------|-0-4-5-7-----|-5---5-7-----|
|---------|---------|---------|-------------|-------------|
  

|-----------|-------------|---------|
|-----------|-------------|---------|
|---------7-|-7---7-7-----|---------|
|-----------|-----------0-|-0-------|
  

CHORUS:
|-------------|-------------|-------------|-----7-7-----|
|-------------|-------------|-------------|-------------|
|-------------|-5---5-5-5---|-------------|-5-----------|
|-5---5-7---7-|-------------|-5---5-7---7-|-----------4-|
  

|-------------|-------------|-------------|---------|
|-------------|-------------|-------------|---------|
|-------------|-4---4-5---5-|-7---7-7-----|---------|
|-5---5-7---7-|-------------|-----------0-|-0-------|
    

|-------------|-------------|-------------|-------------|
|-------------|-------------|-------------|-------------|
|-------------|-5---5-5-5-5\|-------------|-5---5-5-----|
|-5---5-7---7-|-------------|-5---5-7---7-|-----------4-|
  

|-------------|-------------|-----------|
|-------------|-------------|-----------|
|-------------|-4---4-5---5-|-----------|
|-5---5-7---7-|-------------|-0-------4-|
  

INSTRUMENTAL:
|-------------|-----------|-------------|-----------|
|-------------|-----------|-------------|-----------|
|-------------|-----------|-----------2/|-9---9-9---|
|-5---5-5---4/|-5---5-5---|-2---2-2-----|-----------|
  

|------------|-----------------|-----------|---------|
|-12-------9/|-12---11/12-12---|-----------|---------|
|------------|-----------------|-7---7-7---|---------|
|------------|-----------------|-----------|-0---0---|
  

VERSE 2:
|---------|---------|---------|-----9h11-9-11-13--|---------|
|---------|---------|---------|-------------------|---------|
|---------|---------|---------|-------------------|---------|
|-5---5---|-5---5---|-7---6---|-0-----------------|-5---4---|
  

|-------------|---------|-------------|-9-9-9---|
|---------4-4-|---------|-------------|---------|
|-------------|-2---4---|-5---7-----7/|---------|
|-3---2-------|---------|-------------|---------|
  

2ND PRE-CHORUS:
|-----------------|-----------------|-----------------|
|-----------------|-----------------|-----------------|
|-5-------5-5---5-|-4-------4-4---4-|-5-------5-5-----|
|-------5---------|-------4---------|-------5-----0-4-|
  

|-----------------|-----------------|-----------------|
|-----------------|-------------4-4-|---------4-4-----|
|---4-5-7-----7---|-5-------5-7-----|-------4-------7-|
|-5---------7---7-|-------5---------|-----------------|
  

|-------------|-----------|
|-------------|-----------|
|-7---7-7-----|-----5/7---|
|-----------0-|-0---------|
 

END:
|-----------|-----------|-----------|------------|-------------|
|-----------|-----------|-----------|---------14-|-12----12--9/|
|-----------|-----------|-9---9-----|-9---9------|-------------|
|-5---5---4/|-5---5---0-|---------7-|------------|-------------|
 
|--------------|---------|
|-12---12/14---|---------|
|--------------|---------|
|------------0-|-5-------|
  
 Comments (click here to add a non-facebook comment)
Home | FAQs | Privacy | Terms | Contact
Top 100 Tab Sites