Give Kudos?
Are you sure you want to give kudos to jdomary?

Add To Songbook?
Are you sure you want to add this song to your songbook?


3,372 bands | 16,024 songs
Search: Register FREE! | Login
Browse Songs:
Browse Bands:
Tool Panel
Discuss This Song

1 2 3 4 5





Pure Prairie League - Amie(full Version With Outro) (Tab)
Submitter: jdomary (16) on 3/2/03 5 comments
Month Views: 1,014 | Total Views: 128,615
Moderator: Marcavery | Report This Song?
Song Tools

Comment

Songbook

Kudos

Show Chords

Print

While one guitar strums an A chord:

e---------------------------------------------------------
b---------------------------------------------------------
g------------------9-11-9------9--------------------------
d-----7-7-9^7-9/11--------9^11--------7-7-9^7-9s11-9-9----
a-7^9-----------------------------7^9---------------------
E---------------------------------------------------------

e-----------------------------------
b-----------------------------------
g------------------9-11-9------9----
d-----7-7-9^7-9/11--------9^11------
a-7^9-------------------------------
E-----------------------------------

e-------------------------------------------------
b-10----10--------------10----10----12b1r-10------
g----11----11-9----9-11----11----11---------------
d---------------11--------------------------------
a-------------------------------------------------
E--------------------------------------------12/--


    d         d u    d u
e---0--x-x----3-3----2-2--
b---2--x-x----3-3----3-3--
g---2--x-x----0-0----2-2-- x 2
d---2--x-x----0-0--0------
a-0-0--x-x----2-2---------
E------x-x--3-3-3---------

A	      G		D       A         G  D 
I can see why you think you belong to me
A                G
I never tried to make you think 
   A                                D
Or let you see one thing for yourself
              C                               D
But now your off with someone else and I'm alone
              C                                  E
You see, I thought that I might keep you for my own

(Chorus)

A       G             D     
Amie, what you wanna do?
A       G                  D
I think I could stay with you
       Bm                       E
For a while, maybe longer if I do


A                    G        D        A          G  D
Don't you think the time is right for us to find
A                   G                     A                                    
All the things we thought weren't proper could be right in time?
              D
And can you see
           C                              D
Which way we should turn together or alone?
        C                                 E
I can never see whats right or what is wrong

(Will it take to long to see?)

(Chorus)

[solo]

e----------------------------------------------------------
b----------------------------------------------------------
g---------------------9--9------9--------------------------
d-----7---7--7---9/11------9/11---9\7----7-7---7--10-9-7---
a-7/9---9------9-----------------------9-----9------------9
E----------------------------------------------------------

e-------------------------------
b-------------------------------
g-------------------------------
d-------------------10-9-7-9/11-
a-----7-9-7-9-7-9-7-------------
E-7/9---------------------------

e--------------------------------------
b--------------------------------------
g-9--9--9--9--9--9--/12-12-12-12-12-12-
d-11-11-11-11-11-11-/14-14-14-14-14-14-
a--------------------------------------
E--------------------------------------
                           
e-------------------------------------------------------
b-------------------------------------------------------
g-------------------------------------------------------
d------7-9-7-9-9/10-9--7--------------------7-7-8-7-7-5-
a--7/9-------------------9--------7-7-10-10-------------
E-----------------------------8-8-----------------------

e---------------------------------------------------------
b---------------------------------------------------------
g---------------------------7~~-7-------------------------
d-----7-9-7-10-7-9-7-10-9-7-------------------7----8-7-5--
a-7/9----------------------------------7-7-10---10--------
E----------------------------------8-8--------------------

e-----------------------
b-----------------------
g-----------------------
d----7---7-7---9/11-9-9-
a7/9---9-----9----------
E-----------------------

e-----------------------------------------------------
b----------------------10-12/14\12-10-12b1r-10~-------
g-------9----9----9-11--------------------------------
d--9/11---11---11-------------------------------------
a-----------------------------------------------------
E-----------------------------------------------------

                                  
(Chorus)

A                 G         D            A          G  D 
Now it's come to what you want, you've had your way
A                        G                  A                   
And all the things you thought before just faded into gray
             D
And can you see
         C                                 D 
That I don't know if it's you or if it's me?
         C                                  E 
If it's one of us I'm sure we'll both will see

(Won't you look at me and tell me?)

(Chorus)


Amie, what you wanna do?

I think I could stay with you

For a while, maybe longer if I do

(Outro)
         A                     G        D
I keep fallin' in and out of love with you
  A                     G        D
Fallin' in and out of love with you
  A                       G        D
Don't know what I'm gonna do
           A                     G
I'd keep fallin' in and out of love
      Dm    E     A(slow strum)*
With you...........

*:
e-----5----
b----2-----
g---2------
d--2-------
a-0--------
E----------



 Comments (click here to add a non-facebook comment)
Craig Fuller actually takes off on the "D" string,
five frets down. But your post does give it a throatier sound.
Nice job and very accurate.
-eric_steinmetz | 3/27/2003
The s is a slide and the 1 is a number that stands for a full step bend.
-jdomary | 12/5/2003
Outstand job!!
-stpierrenb | 10/5/2004
Thank you! this is great!
-bwhitty | 10/28/2004
BEAUTIFUL WORK!!! One suggestion, rather than an A strum on guitar1, try:
E------5------5------5--
B------5------5------5--
G--2------2------2------
D------------------------
A------------------------
E------------------------
-microsysinc | 4/22/2009
Home | FAQs | Privacy | Terms | Contact
Top 100 Tab Sites