Give Kudos?
Are you sure you want to give kudos to aussief?

Add To Songbook?
Are you sure you want to add this song to your songbook?


3,420 bands | 16,454 songs
Search: Register FREE! | Login
Browse Songs:
Browse Bands:
Tool Panel
Discuss This Song

1 2 3 4 5



Piero Umiliani ( The Muppets) - Mah Na Mah Na (Tab)
Submitter: aussief (124) on 2/13/16 1 comment
Month Views: 26 | Total Views: 1,139
Help! We need a moderator for this artist. | Report This Song?
Song Tools

Comment

Songbook

Kudos

Show Chords

Print

   This was made popular by The Muppets but was originally composed and used in
   an Italian soft porn movie. Fun to play.
          Words and Music by Piero Umiliani


E|-------|------2-3-|-0--------------|------2-3-0-|-----------|----------|
B|-------|----3-----|----1-----------|----3-------|-----------|----3-2-3-|
G|-2-1-0-|----------|----------2-1-0-|------------|-----2-1-0-|----------|
D|-------|-4--------|----------------|-4----------|-----------|-4--------|
A|-------|----------|----------------|------------|-----------|----------|
E|-------|----------|----------------|------------|-----------|----------|
  Mahna Mahna do do be do do   Mahna Mahna do do do do  Mahna Mahna do do be

E|-0-------0-------|-0-------0----------|------------|--------|
B|---1---3----1--3-|---1---3----1-------|-1--1--1-1--|-1------|
G|-----------------|---------------2--0-|------------|--------|
D|-----------------|--------------------|------------|--------|
A|-----------------|--------------------|------------|--------|
E|-----------------|--------------------|------------|--------|
 do do  be do do do be do do be do do do doo doo do do dooo    (Repeat, adlib octave
                                                                higher,lower etc.)
An F. K. Tab,,,,Enjoy!!!!!


 Comments (click here to add a non-facebook comment)
Sounds good!! Nice job!! KK.
-kraziekhat | 2/18/2016
Home | FAQs | Privacy | Terms | Contact
Top 100 Tab Sites