Give Kudos?
Are you sure you want to give kudos to dwm376s?

Add To Songbook?
Are you sure you want to add this song to your songbook?


3,424 bands | 16,463 songs
Search: Register FREE! | Login
Browse Songs:
Browse Bands:
Tool Panel
Discuss This Song

1 2 3 4 5



Nitty Gritty Dirt Band - You Aint Goin Nowhere (Intro)
Submitter: dwm376s (2) on 4/6/04
Month Views: 44 | Total Views: 6,561
Sound Byte: Listen
Moderator: InkedPreacher | Report This Song?
Song Tools

Comment

Songbook

Kudos

Show Chords

Print

Here is the intro for You Ain't Goin' Nowhere.
I tabbed this listening to the Live at Five
album. 

The section boxed in by ***** is the very last
part of the intro. Open to suggestions for that 
last 5 notes or so. The rest is right on. 
You'll notice that I have left this part 
out of the recording.






e --------------------12------------------
b -------10-----10-12b--12b--10-12br10----
g ---------9h11-----------------------11--
d ----------------------------------------
a ----------------------------------------
e ----------------------------------------

e ----------------------------------------
b -------10h12-12br10--12p10----10--------
g ---9h11------------11------11----9-9----
d ----------------------------------------
a ----------------------------------------
e ----------------------------------------

e ---12b----------------------------------
b --------12b--12br10---------10h12-------
g -------------------11---9h11------------
d ----------------------------------------
a ----------------------------------------
e ----------------------------------------

e ------------------------****************
b ---12br10---12p10--10---*-10b-10b------*
g ---------11------11-----*-11b-11br9----*
d ------------------------*----------9-11*
a ------------------------****************
e ----------------------------------------
 Comments (click here to add a non-facebook comment)
Home | FAQs | Privacy | Terms | Contact
Top 100 Tab Sites