Give Kudos?
Are you sure you want to give kudos to dwm376s?

Add To Songbook?
Are you sure you want to add this song to your songbook?


3,424 bands | 16,463 songs
Search: Register FREE! | Login
Browse Songs:
Browse Bands:
Tool Panel
Discuss This Song

1 2 3 4 5



Nitty Gritty Dirt Band - Stand A Little Rain (Tab)
Submitter: dwm376s (2) on 4/16/04 3 comments
Month Views: 34 | Total Views: 5,185
Sound Byte: Listen
Moderator: InkedPreacher | Report This Song?
Song Tools

Comment

Songbook

Kudos

Show Chords

Print

Here is the is the tab for Stand a Little
Rain from  Nitty Gritty Dirt Band's Live 
at Five album.


Play with acoustic through the intro and first
verse and chorus:

e ----------------------------------------
b ---------------------2------------------
g ---------------------2h4-44-2--1/2------
d ---------------------2------2-----------
a -----------------0-----------------0----
e ----------------------------------------



e ----------------------------------------
b ---2-----------------2------------------
g ---2h4-44-2--1/2-----2h4-44-2--1/2------
d ---2------2----------2------2------0----
a 0----------------0----------------------
e ----------------------------------------


e ----------------------------------------
b ----------------------------------------
g ---2h4-44-2--1/2-----2h4-44-2--1/2------
d ----------------0-----------------------
a ------------------------------------0---
e ----------------------------------------


e ----------------------------------------
b ---2-----------------2------------------
g ---2h4-44-2--1/2-----2h4-44-2--1/2------
d ---2------2----------2------2------0----
a -----------------0----------------------
e ----------------------------------------


e ----------------------------------------
b ----------------------------------------
g ---2h4-44-2--1/2-----2h4-44-2-----------
d ----------------0-----------------------
a ---------------------------------------
e ----------------------------------------

PRECHORUS:
Acoustic-
e ------------------------2--------2------
b ------5-------5-------3---3----3---3----
g ----4---4---4---4-----------------------
d --2-------2---------4--------4----------
a ----------------------------------------
e ----------------------------------------

Electric-
e ----------------------------------------
b ----------------------------------------
g --1-----------------2-------------------
d ----------------------------------------
a ----------------------------------------
e ----------------------------------------

Acoustic- 
 -----------------------------------------
b ------5-------5-------------------------
g ----4---4---4---4-----------------------
d --2-------2---------4-------------------
a ----------------------------------------
e ----------------------------------------


Electric- 
e ---------------------------------5--5----
b ---------------------------------5--5----
g --1-----------------2------------7--7----
d ---------------------------------7--7----
a ---------------------------------5--5----
e ------------------------------------5----


After the first chorus the lead electric
plays a similar series of riffs: the following 
is played throughout the verses with a few
variant riffs thrown in see below.

e -----------------------------------------
b -----------------------------------------
g ----/4-44-2-1/2----/4-44-2-1/2-----------
d -----------------------------------------
a -0-------------0--------------0----------
e -----------------------------------------

   
   time 1:09 and 1:22          time 1:42
e -----------------------------------------
b -----2-----------------7---3-------------
g -2h4---4p2--------------------2----------
d -----------0-----------------------------
a -----------------------------------------
e -----------------------------------------

  time 2:31
e -----------------------------------------
b -----------------------------------------
g -/4-4-4-2-----2-/6-4-2---------------------
d ----------2h4---------4-2-4---------------
a -----------------------------------------
e -----------------------------------------

  time 2:44 and 2:57
e ---/5-5-5--------------------------------
b ---/5-5-5--------------------------------
g -----------2-2---------------------------
d ----------------------------2-2--2/7-----
a -0------------------0-0-2h4--------------
e ----------------0h2----------------------


The entire sound byte is played with an electric
but the first part should be played with an acoustic.
I simply played each main riff in sequence. 1st 
2nd solo's are coming.
 Comments (click here to add a non-facebook comment)
What an incredible job at figuring this song out, i wish i had that kind of talent! It's one of my favorite songs, keep up the excellent work!
-Crashintome1019 | 12/19/2004
Is this the same Blackhawk song?
-lmofle | 4/16/2004
I'm not sure if it is a blackhawk song
or not. It is on a NGDB live cd I have
and I like the tune... so I tabbed it out.
It may very well be the same song. I know
that Blackhawk has a song titled, "I Sure Can
Smell the Rain."
-dwm376s | 4/16/2004
Home | FAQs | Privacy | Terms | Contact
Top 100 Tab Sites