Give Kudos?
Are you sure you want to give kudos to dwm376s?

Add To Songbook?
Are you sure you want to add this song to your songbook?


3,424 bands | 16,463 songs
Search: Register FREE! | Login
Browse Songs:
Browse Bands:
Tool Panel
Discuss This Song

1 2 3 4 5



Nitty Gritty Dirt Band - High Horse (Intro)
Submitter: dwm376s (2) on 4/7/04
Month Views: 34 | Total Views: 4,114
Sound Byte: Listen
Moderator: InkedPreacher | Report This Song?
Song Tools

Comment

Songbook

Kudos

Show Chords

Print

Here is the intro riff for High Horse from
Nitty Gritty Dirt Band's Live Two Five album.





e ----------------------------------------0-
b ----------------------------------------0-
g ----------------------------------------1-
d ---/2-------------------2---------------2-
a ------4-2----------2-0h2--4-2-----------2- 
e ----------0-/4-0-4-------------4-2-4-0--0-

e ------------------------------------------
b ------------------------------------------
g ------------------------------------------
d ---/2--------------------2-----------------
a ------4-2-----------2-0h2--4-2-------------
e -----------4-2-4-0-------------0-/4-2-0----

e ------------------------------------------
b ------------------------------------------
g ------------------------------------------
d ----2----2-----2--------------------------
a -0h2--0h2---0h2---------------------------
e ----------------0-------------------------
 Comments (click here to add a non-facebook comment)
Home | FAQs | Privacy | Terms | Contact
Top 100 Tab Sites