Give Kudos?
Are you sure you want to give kudos to aussief?

Add To Songbook?
Are you sure you want to add this song to your songbook?


3,420 bands | 16,455 songs
Search: Register FREE! | Login
Browse Songs:
Browse Bands:
Tool Panel
Discuss This Song

1 2 3 4 5



Mungo Jerry - In The Summertime ( With Intro) (Tab)
Submitter: aussief (75) on 1/1/11 2 comments
Month Views: 19 | Total Views: 3,454
Help! We need a moderator for this artist. | Report This Song?
Song Tools

Comment

Songbook

Kudos

Show Chords

Print

  Words and Music by Ray Dorset

                       E
E|-------|-----------|-0--0-0-------|----------------|-0--0-0------|-------------|
B|-------|-------0-2-|----------2-0-|-2-0--------0-2-|---------2-0-|-2-0---------|
G|-------|-----------|--------------|-----0-1--------|-------------|-----0-h-1---|
D|-------|-----------|--------------|---------2------|-------------|-----------2-|
A|-------|-----------|--------------|----------------|-------------|-------------|
E|-0--0--|-0--0------|--------------|----------------|-------------|-------------|

    A                         E                   B         A
E|----------|---------------|-4--4-4--|-4--4-4--|-7--9--7-|-7------7--5-|
B|--7--5----|-7-5---7-5---7-|-5--5-5--|-5--5-5--|---------|---5---------|
G|--6-----6-|-----6-----6---|------4--|-4--4-4--|---------|----(6)------|
D|--7-------|---------------|---------|---------|---------|-------------|
A|--0-------|---------------|---------|---------|---------|-------------|
E|----------|---------------|---------|---------|---------|-------------|

   E
E|-0--0-0-----|-----------|
B|--------2-0-|-2-0-------|
G|------------|-----0-1---|
D|------------|---------2-|
A|------------|-----------|
E|------------|-----------|

        E
In the summertime when the weather's high,
                              E7 
you can stretch right up and touch the sky,
          A
when the weather's fine,
                                      E
you got women, you got women on your mind.
        B7  
Have a drink, have a drive,
A                            E
go out and see what you can find.

        E
If her daddy's rich, take her out for a meal.
                          E7
If her daddy's poor, just do as you feel.
 A
Speed along the lane,
             E
Do a ton, or a ton and twenty-five.
          B7                     A
When the sun goes down, you can make it,
                      E
make it good in a lay-by.

           E
We're not grey people, we're not dirty, we're not mean.
                          E7
We love everybody, but we do as we think.
          A
When the weather's fine
                                    E
we go fishing or go swimming in the sea.
              B7
We're always happy,
            A                               E
life's for living, yeah, that's our philosophy.

E
Sing along with us, dee-dee-dee-dee-dee.
                             E7
Da-da-da-da-da...Yeah, we're hap hap happy,
      A                                  E
da-da-da-da-dah. dee-dee-dee-dee-doo-doo-da-da
      B7                 A                    E
da-da-da-da, da-da-da-da-da-da-da-da-da-da-da-da

(Repeat Intro)
          E
When the winter's here, then it's party time.
                 
Bring a bottle, wear your bright clothes.
       E7                            A 
It'll soon be summertime, and we'll sing again,
                                        E
we'll go drivin' or maybe we'll settle down.
          B7
If she's rich, if she's nice,
              A                             E
bring you're friends and we'll all go into town.

(Repeat Intro then play song from the start)


An F. K. Tab,,, Enjoy!!!!!!!


 Comments (click here to add a non-facebook comment)
great job f.k., love this tune !
-microsysinc | 1/1/2011
Very nice. KK.
-kraziekhat | 1/2/2011
Home | FAQs | Privacy | Terms | Contact
Top 100 Tab Sites