Give Kudos?
Are you sure you want to give kudos to microsysinc?

Add To Songbook?
Are you sure you want to add this song to your songbook?


3,408 bands | 16,378 songs
Search: Register FREE! | Login
Browse Songs:
Browse Bands:
Tool Panel
Discuss This Song

1 2 3 4 5





Moody Blues - Nights In White Satin (piccolo Solo For Guitar) (Solo)
Album: Days of Future Passed (1967)
Submitter: microsysinc (32) on 4/7/10 2 comments
Month Views: 127 | Total Views: 11,618
Moderator: lukydorny | Report This Song?
Song Tools

Comment

Songbook

Kudos

Show Chords

Print

Piccolo Solo (tabbed for guitar using a Yamaha PSR-740 keyboard w/setting #194
              for Piccolo flute)

Video:  http://www.youtube.com/watch?v=9muzyOd4Lh8  

   B  E    F# G  F#E D    E  F# E D C    D  E  Eb 
e-------------------------------------------------|
B--0--5----7--8--7-5-3----5--7--5-3-1----3--5--4--|
G-------------------------------------------------|
D-------------------------------------------------|
A-------------------------------------------------|
E-------------------------------------------------|
   B  E    F# G  A  G F#   G  A   G F#E    F# G  F# 
e---------------------------------------------------|
B--0--5----7--8--10-8-7----8--10--8-7-5----7--8--7--|
G---------------------------------------------------|
D---------------------------------------------------|
A---------------------------------------------------|
E---------------------------------------------------|
   B   B     A   G F#E    G B   B   A   G F#E
e----------------------------------------------|
B--12--12----10--8-7-5----8-12--12--10--8-7-5--|
G----------------------------------------------|
D----------------------------------------------|
A----------------------------------------------|
E----------------------------------------------|
   G  A     B  C  B     C  B  A     B  C  B
e---------------------------------------------|
B--8--10----12-13-12----13-12-10----12-13-12--|
G---------------------------------------------|
D---------------------------------------------|
A---------------------------------------------|
E---------------------------------------------|
   E  D  E~~~~~~~D  E~~~~~~~D  E~~~~~~~
e--------12~~~~~~10-12~~~~~~10-12~~~~~~|
B--5--3--------------------------------|
G--------------------------------------|
D--------------------------------------|
A--------------------------------------|
E--------------------------------------|

*** Strings begin at 3rd line of 1st verse  "Beauty I'd always missed…"

  strings riff 1               strings riff 2               strings riff 3 
   E    D  E  F# G  F# D  E       D  E  F# G  F# D  C       C    G    F    E
e------------------------------|-------------------------|----------------------|
B--5----3--5--7--8--7--3--5~~~~|--3--5--7--8--7--3--1~~~~|--1~~~~---------------|
G------------------------------|-------------------------|-------0~~~~----------|
D------------------------------|-------------------------|------------3~~~~2~~~~|
A------------------------------|-------------------------|----------------------|
E------------------------------|-------------------------|----------------------|

 Comments (click here to add a non-facebook comment)
Good one,,,Very well done!!!!
-aussief | 4/8/2010
Good stuff, Mate. KK.
-kraziekhat | 4/8/2010
Home | FAQs | Privacy | Terms | Contact
Top 100 Tab Sites