Give Kudos?
Are you sure you want to give kudos to aussief?

Add To Songbook?
Are you sure you want to add this song to your songbook?


3,420 bands | 16,457 songs
Search: Register FREE! | Login
Browse Songs:
Browse Bands:
Tool Panel
Discuss This Song

1 2 3 4 5



Mikis Theodorakis - Zorba The Greek ( Theme) (Tab)
Submitter: aussief (63) on 6/2/13 1 comment
Month Views: 127 | Total Views: 26,987
Help! We need a moderator for this artist. | Report This Song?
Song Tools

Comment

Songbook

Kudos

Show Chords

Print

   Composed by Mikis Theodorakis

   G
E|------------------|------------------|------------------|
B|-2-3-3-3--3-3-3-3-|-3-3-3-3--3-3-3-3-|-2-3-3-3--3-3-3-3-|
G|------------------|------------------|------------------|
D|------------------|------------------|------------------|
A|------------------|------------------|------------------|
E|------------------|------------------|------------------|


E|-----------------0--------|------------------|------------------|
B|-3-3-3-3--3-3--3---3--2-3-|-2-3-3-3--3-3-3-3-|-3-3-3-3--3-3-3-3-|
G|--------------------------|------------------|------------------|
D|--------------------------|------------------|------------------|
A|--------------------------|------------------|------------------|
E|--------------------------|------------------|------------------|

                                        Am (a little faster)
E|------------------|------------------|------------------|
B|-2-3-3-3--3-3-3-3-|-3-3-3-3--3-3-3-3-|-0-1-1-1--1-1-1-1-|
G|------------------|------------------|------------------|
D|------------------|------------------|------------------|
A|------------------|------------------|------------------|
E|------------------|------------------|------------------|


E|-------------------------|------------------|------------------|
B|-1-1-1-1--1-1--1-3-1-0-1-|-0-1-1-1--1-1-1-1-|-1-1-1-1--1-1-1-1-|
G|-------------------------|------------------|------------------|
D|-------------------------|------------------|------------------|
A|-------------------------|------------------|------------------|
E|-------------------------|------------------|------------------|

   G                                          Am
E|------------------|---------------0-------|------------------|
B|-2-3-3-3--3-3-3-3-|-3-3-3--3-3--3---3-1-0-|-1-1-1-1--1-1-1-1-|
G|------------------|-----------------------|------------------|
D|------------------|-----------------------|------------------|
A|------------------|-----------------------|------------------|
E|------------------|-----------------------|------------------|

            D7               G                                    (moderately)
E|-------------------------|---3-3-3--3-3-3-3-|--3-3-3--3-3-----|-----------|
B|-1-1-1-1--1-1--1-3-1-0---|------------------|-----------------|-----------|
G|-----------------------2-|-0----------------|---------------3-|--4--------|
D|-------------------------|------------------|-----------------|-----------|
A|-------------------------|------------------|-----------------|-----------|
E|-------------------------|------------------|-----------------|-----------|

                              G7                 C              G          Am
E|-------|--------|-----0--|--1-----|--------|---0----|-----|------|-----|------|
B|-----2-|--3-----|--------|--------|------4-|--------|---2-|---3--|---0-|--1---|
G|-------|--------|--------|--------|--------|--------|-----|------|-----|------|
D|-------|--------|--------|--------|--------|--------|-----|------|-----|------|
A|-------|--------|--------|--------|--------|--------|-----|------|-----|------|
E|-------|--------|--------|--------|--------|--------|-----|------|-----|------|


                          G                     Am     D7
E|-0-------|-----|------|------|--------------|-----|-------------|
B|---3-1-0-|-1---|------|------|----3-1-0-----|-1---|---1-3-------|
G|---------|-----|----3-|-4----|----------2-1-|-----|-------2-0---|
D|---------|-----|------|------|--------------|-----|-----------4-|
A|---------|-----|------|------|--------------|-----|-------------|
E|---------|-----|------|------|--------------|-----|-------------|

   G                                           G (brightly)
E|----------|----------|----------|----------|---------|---------------|
B|----------|----------|----------|----------|---0-0-0-|-0-1-0---0---0-|
G|---0----0-|---0----0-|---0----0-|---0----0-|---------|-------2---2---|
D|------0---|------0---|------0---|------0---|---------|---------------|
A|----------|----------|----------|----------|---------|---------------|
E|-3--------|-3--------|-3--------|-3--------|---------|---------------|

                                                                        D7
E|---------|---------------|---------|---------------|----3--3-|-2--0-|----0----|
B|---0-0-0-|-0-1-0---0---0-|---0-0-0-|-0-1-0---0-1-3-|---------|------|-3-----1-|
G|---------|-------2---2---|---------|-------2-------|-0-------|------|---------|
D|---------|---------------|---------|---------------|---------|------|---------|
A|---------|---------------|---------|---------------|---------|------|---------|
E|---------|---------------|---------|---------------|---------|------|---------|

   G                        D7                                 G
E|---------------|-----7-|-5-8-7-5---7-5---|---5-----0-----0-|---0---------|
B|-0-1-0---0---0-|-------|---------8-----8-|-7---8-7---8-7---|-3---3-1-3-0-|
G|-------2---2---|-0-----|-----------------|-----------------|-------------|
D|---------------|-------|-----------------|-----------------|-------------|
A|---------------|-------|-----------------|-----------------|-------------|
E|---------------|-------|-----------------|-----------------|-------------|

             D7                                  G              G7      D7
E|------7--|-5-8-7-5---7-5---|---5-----0-----0-|---0---------|----3--3-|-2--5--|
B|---------|---------8-----8-|-7---8-7---8-7---|-3---3-1-3-4-|---------|-------|
G|-0-------|-----------------|-----------------|-------------|--0------|-------|
D|---------|-----------------|-----------------|-------------|---------|-------|
A|---------|-----------------|-----------------|-------------|---------|-------|
E|---------|-----------------|-----------------|-------------|---------|-------|

             G            G7      D7                 G             G  D7
E|-2-3--0-|---0---------|---3--3-|-2--5--|-2--3--0-|---0---------|---0----|
B|--------|-3---3-1-3-0-|--------|-------|---------|-3---3-1-3-0-|-3---1--|
G|--------|-------------|-0------|-------|---------|-------------|--------|
D|--------|-------------|--------|-------|---------|-------------|--------|
A|--------|-------------|--------|-------|---------|-------------|--------|
E|--------|-------------|--------|-------|---------|-------------|--------|

   G                  D7     G                 D7     G             G7
E|---------------|--0------|---------------|------0-|---0---------|----3--3-|
B|-0-1-0---0---0-|----1-3--|-0-1-0---0---0-|--0-1---|-3---3-1-0---|---------|
G|-------2---2---|---------|-------2---2---|--------|-------------|-0-------|
D|---------------|---------|---------------|--------|-------------|---------|
A|---------------|---------|---------------|--------|-------------|---------|
E|---------------|---------|---------------|--------|-------------|---------|

  D7                 G              G7        D7            G
E|-2--0-|----0----|---------------|---3--3-|-2--0-|---0---|---------------|
B|------|-3-----1-|-0-1-0---0---0-|--------|------|-3---1-|-0-1-0---0---0-|
G|------|---------|-------2---2---|-0------|------|-------|-------2---2---|
D|------|---------|---------------|--------|------|-------|---------------|
A|------|---------|---------------|--------|------|-------|---------------|
E|------|---------|---------------|--------|------|-------|---------------|


           D7                                  G7               D7  
E|-----7-|-5-8-7-5---7-5---|---0-----0-----0-|---0-----|----7-|-5-8-7-5---7-5---|
B|-------|---------8-----8-|-7---8-7---8-7---|-3---3-1-|------|---------8-----8-|
G|-0-----|-----------------|-----------------|---------|-0----|-----------------|
D|-------|-----------------|-----------------|---------|------|-----------------|
A|-------|-----------------|-----------------|---------|------|-----------------|
E|-------|-----------------|-----------------|---------|------|-----------------|

                                   G
E|--2--5--3--2---0---3---2---0-|------0---------------3------|
B|-----------------------------|--3-------3---1---3----------|
G|-----------------------------|-----------------------------|
D|-----------------------------|-----------------------------|
A|-----------------------------|-----------------------------|
E|-----------------------------|-----------------------------|

An F. K. Tab,,,,Enjoy!!!!
 Comments (click here to add a non-facebook comment)
Nice job.!!!! K.K.

-kraziekhat | 6/3/2013
Home | FAQs | Privacy | Terms | Contact
Top 100 Tab Sites