Give Kudos?
Are you sure you want to give kudos to Nashvillechick?

Add To Songbook?
Are you sure you want to add this song to your songbook?


3,017 bands | 13,380 songs
Search: Register FREE! | Login
Browse Songs:
Browse Bands:
Tool Panel
Discuss This Song

1 2 3 4 5





Melissa Etheridge - Must Be Crazy For Me (Tab)
Album: Never Enough (1992)
Submitter: Nashvillechick (6) on 8/10/04
Month Views: 53 | Total Views: 2,570
Moderator: Nashvillechick | Report This Song?
Song Tools

Comment

Songbook

Kudos

Show Chords

Print

Song: Must Be Crazy For Me
Artist: Melissa Etheridge
Album: Never Enough
Tabbed By: NashvilleChick

Key

D= Downstroke
U= Upstroke
\= Slide Up


Note: This tab is for, I'm not really sure what "guitar" to call it. It's
kind of rythm but it's not the rythm, and it's kind of the lead, but
it's not the lead. But, if you know this song, you'll know what I'm
talking about. I guess I'll call it the rythm. 






Intro:

  D  U  U  U  U  U  U  U  D    U  U  U U  U  U  U   D
E--------------------------------------------------------}
B--------------------------------------------------------}
G--------------------------------------------------------}
D-10-10-10-10-10-10-10-10-9\10-10-10-10-10-10-10-10--9---}X4 for Intro
A-10-10-10-10-10-10-10-10-9\10-10-10-10-10-10-10-10--9---}
E--8--8--8--8--8--8--8--8-7\-8--8--8--8--8--8--8--8--7---}


Verse 1:

  D  U  U  U  U  U  U  U  D    U  U  U U  U  U  U   D
E---------------------------------------------------------
B---------------------------------------------------------
G---------------------------------------------------------
D-10-10-10-10-10-10-10-10-9\10-10-10-10-10-10-10-10--9\---
A-10-10-10-10-10-10-10-10-9\10-10-10-10-10-10-10-10--9\---
E--8--8--8--8--8--8--8--8-7\-8--8--8--8--8--8--8--8--7\---

    

   D  U  U  U  U  U  U  U   D    U  U  U  U  U  U  U  D
E---------------------------------------------------------   Repeat 
B---------------------------------------------------------   from
G---------------------------------------------------------   beginning
D--15-15-15-15-15-15-15-15--9\10-10-10-10-10-10-10-10-7\--   of verse 1
A--15-15-15-15-15-15-15-15--9\10-10-10-10-10-10-10-10-7\--   again.
E--13-13-13-13-13-13-13-13--7\8--8--8--8--8--8--8--8--9\--

Chorus:
   D  U  U  U  D  U  U  U  D  U  U  U  D  U  U  U
E----------------------------------------------------
B----------------------------------------------------
G----------------------------------------------------
D--7--7--7--7--3--3--3--3--7--7--7--7--3--3--3--3----
A--7--7--7--7--3--3--3--3--7--7--7--7--3--3--3--3----
E--5--5--5--5--1--1--1--1--5--5--5--5--1--1--1--1----

 D  U  U  U  U  U  U  U  D    U  U  U U  U  U  U   D
E---------------------------------------------------------
B---------------------------------------------------------
G---------------------------------------------------------
D-10-10-10-10-10-10-10-10-9\10-10-10-10-10-10-10-10--9\---
A-10-10-10-10-10-10-10-10-9\10-10-10-10-10-10-10-10--9\---
E--8--8--8--8--8--8--8--8-7\-8--8--8--8--8--8--8--8--7\---

Verse 2:

D  U  U  U  U  U  U  U  D    U  U  U U  U  U  U   D
E---------------------------------------------------------
B---------------------------------------------------------
G---------------------------------------------------------
D-10-10-10-10-10-10-10-10-9\10-10-10-10-10-10-10-10--9\---
A-10-10-10-10-10-10-10-10-9\10-10-10-10-10-10-10-10--9\---
E--8--8--8--8--8--8--8--8-7\-8--8--8--8--8--8--8--8--7\---

    

   D  U  U  U  U  U  U  U   D    U  U  U  U  U  U  U  D
E---------------------------------------------------------   Repeat 
B---------------------------------------------------------   from
G---------------------------------------------------------   beginning
D--15-15-15-15-15-15-15-15--9\10-10-10-10-10-10-10-10-7\--   of verse 2
A--15-15-15-15-15-15-15-15--9\10-10-10-10-10-10-10-10-7\--   again.
E--13-13-13-13-13-13-13-13--7\8--8--8--8--8--8--8--8--9\--


Chorus:
   D  U  U  U  D  U  U  U  D  U  U  U  D  U  U  U
E----------------------------------------------------
B----------------------------------------------------
G----------------------------------------------------
D--7--7--7--7--3--3--3--3--7--7--7--7--3--3--3--3----
A--7--7--7--7--3--3--3--3--7--7--7--7--3--3--3--3----
E--5--5--5--5--1--1--1--1--5--5--5--5--1--1--1--1----

 D  U  U  U  U  U  U  U  D    U  U  U U  U  U  U   D
E---------------------------------------------------------
B---------------------------------------------------------
G---------------------------------------------------------
D-10-10-10-10-10-10-10-10-9\10-10-10-10-10-10-10-10--9\---
A-10-10-10-10-10-10-10-10-9\10-10-10-10-10-10-10-10--9\---
E--8--8--8--8--8--8--8--8-7\-8--8--8--8--8--8--8--8--7\---

Instrumental:

E--------------------------------------------------------------
B--------------------------------------------------------------
G--------------------------------------------------------------
D--7-7-7-7-7-7-7-7--10-10-10-10-10-10-10-10--7-7-7-7-7-7-7-7---
A--7-7-7-7-7-7-7-7--10-10-10-10-10-10-10-10--7-7-7-7-7-7-7-7---
E--5-5-5-5-5-5-5-5--8--8--8--8--8--8--8--8---5-5-5-5-5-5-5-5---

E----------------------------------------------------
B----------------------------------------------------
G----------------------------------------------------
D--3-3-3-3-3-3-3-3\5-5-5-5-5-5\10--------------------
A--3-3-3-3-3-3-3-3\5-5-5-5-5-5\10--------------------
E--1-1-1-1-1-1-1-1\3-3-3-3-3-3\8---------------------


Verse 3:

  First Lines don't play anything. Let the "C" chord ring.
E----------------------------------------------------
B----------------------------------------------------
G----------------------------------------------------
D----------------------------------------------------
A----------------------------------------------------
E----------------------------------------------------

Start to play this when she stsrts to sing "Alone Baby"
 D  U  U  U  U  U  U  U   D    U  U  U  U  U  U  U  D
E---------------------------------------------------------   
B---------------------------------------------------------  
G---------------------------------------------------------  
D--15-15-15-15-15-15-15-15--9\10-10-10-10-10-10-10-10-7\--   
A--15-15-15-15-15-15-15-15--9\10-10-10-10-10-10-10-10-7\--   
E--13-13-13-13-13-13-13-13--7\8--8--8--8--8--8--8--8--9\--

Chorus:

   D  U  U  U  D  U  U  U  D  U  U  U  D  U  U  U
E----------------------------------------------------
B----------------------------------------------------
G----------------------------------------------------
D--7--7--7--7--3--3--3--3--7--7--7--7--3--3--3--3----
A--7--7--7--7--3--3--3--3--7--7--7--7--3--3--3--3----
E--5--5--5--5--1--1--1--1--5--5--5--5--1--1--1--1----

  D  U  U  U  U  U  U  U  D    U  U  U U  U  U  U   D
E---------------------------------------------------------
B---------------------------------------------------------
G---------------------------------------------------------
D-10-10-10-10-10-10-10-10-9\10-10-10-10-10-10-10-10--9\---
A-10-10-10-10-10-10-10-10-9\10-10-10-10-10-10-10-10--9\---
E--8--8--8--8--8--8--8--8-7\-8--8--8--8--8--8--8--8--7\---

Outro (Repeat and Fade): 

  D  U  U  U  U  U  U  U  D    U  U  U U  U  U  U   D
E--------------------------------------------------------
B--------------------------------------------------------
G--------------------------------------------------------
D-10-10-10-10-10-10-10-10-9\10-10-10-10-10-10-10-10--9---
A-10-10-10-10-10-10-10-10-9\10-10-10-10-10-10-10-10--9---
E--8--8--8--8--8--8--8--8-7\-8--8--8--8--8--8--8--8--7---

 Comments (click here to add a non-facebook comment)
Home | FAQs | Privacy | Terms | Contact
Top 100 Tab Sites