Give Kudos?
Are you sure you want to give kudos to jca4jc?

Add To Songbook?
Are you sure you want to add this song to your songbook?


3,430 bands | 16,491 songs
Search: Register FREE! | Login
Browse Songs:
Browse Bands:
Tool Panel
Discuss This Song

1 2 3 4 5



Mason Williams - Classical Gas (Lead)
Submitter: jca4jc (0) on 1/14/02 1 comment
Month Views: 14 | Total Views: 3,412
Help! We need a moderator for this artist. | Report This Song?
Song Tools

Comment

Songbook

Kudos

Show Chords

Print

Tabbed by:  John Kean

INTRO:
 3/4  ,   .   .     ,   .   .     ,   .   .     ,   .   .
||----------------|-------------|-------------|-------------|
||-T--1-------1---|---0---------|---0---------|-------------|
||-A------2-------|--0----------|--0--2---0---|---2---------|
||-B--------------|-------------|-------------|--2----------|
||----0-----------|-------------|-------------|-0-----------|
||----------------|-3---------2-|-0-----------|-------------|


  ,    .   .     ,   .   .     ,    .    .      ,   .   .
|--------------|-------------|----------------|-------------|
|---0h1----0h1-|---0---------|---0----------0-|-------------|
|--2---2-------|--0----------|--0---2--0-0h2--|---2---------|
|--------------|-------------|----------------|--2----------|
|-0------------|-------------|----------------|-0-----------|
|--------------|-3---------2-|-0--------------|-------------|


  ,     .     .    4/4 ,   .   ,   .      ,   .   ,  . 0'20"
|-------------------|--0----------------|-----------------||
|-----------------3-|--------3-1---3----|---1-0-----------||
|-----0-----0---0---|------0---2--------|-----------------||
|---0-----0---------|-------------------|-2---------------||
|-------0-----2-----|--3----------------|-----------------||
|-3-----------------|-------------------|-----------------||


PART A:
    ,     .   ,   .     ,   .   ,   .     ,   .   ,   .
||--------------------|-----------------|-----------------|
||--0h1p0-1-----1---0-|-----------------|-0---------0-----|
||*---------2---------|-----0-----0-----|---2-0-2-------2-|
||*---------------2---|---0-----0-----0-|-----------------|
||--0---------0-------|-----------------|-----------------|
||--------------------|-3-----2-----0---|-0-------0---0---|


 1,2,3.------------. 4.---------------
  ,   .   ,   .       ,   .   ,   .     ,   .   ,   .
|------------------||-----------------|-----------------|
|------------------||-------0-----0-1-|-----1-----3-----|
|-----2-----2-----*||-----2-----0-----|---2-----0-----0-|
|---2-----2-----2-*||---2-------------|-----------------|
|-0-----0-----0----||-0---------------|-0-----2-----2---|
|------------------||---------3-------|-----------------|


6/4,  .   ,  .  ,   .  4/4,   .   ,   .     ,   .   ,   .
|--0--------------------|-----------------|-----------------|
|-------3-1--3----1p0---|-----------------|-------0-----0-1-|
|-----0---2---------0---|-2-----0-2-2---0-|-2---2-----0-----|
|---------------2-------|---------2-------|---2-------------|
|--3--------------------|-----------------|-0---------------|
|-----------------------|-1-------0-------|---------3-------|


  ,   .   ,   .  3/4 ,   .   .     ,   .   .     ,   .    . 0'54"
|-----------------|--0-----1-----|-2-----3-----|-4---5p0--7----||
|-----1-----3-----|----1-----1---|---1-----0---|---0----0---0--||
|---2-----0-----0-|------0-----2-|-----2-----0-|---------------||
|-----------------|--------------|-0-----------|---------------||
|-0-----2-----2---|--3-----------|-------------|---------------||
|-----------------|--------1-----|-------3-----|-0-------------||


PART B:
4/4 ,   .   ,   .     ,   .   ,   .     ,   .   ,   .
||--8-7-------------|---------5-------|-8-7-------------|
||-----10-8--10---7-|--10-7-----5-----|----10-8--10---7-|
||--------9---9---7-|-----7-----5-----|-----------9---7-|
||------------------|-0-----0---------|-----------------|
||--0-------0---0---|-------------0---|-0-------0---0---|
||------------------|-----------------|-----------------|


  ,   .   ,    .     ,   .   ,   .     ,   .    ,   .
|-------5----------|-8-7-------------|-----8----------3-|
|---8-----7------0-|----10-8--10---7-|----10-10-8-----3-|
|---9-----7----0---|-------9---9---7-|----------9-------|
|-0---0-----0h2----|-----------------|-0-0--------0-----|
|------------------|-0-------0---0---|------------------|
|------------------|-----------------|------------------|


5/4,   .   ,   .   .   6/4,   .   ,   .   ,   .
|------------1----------|---0-----0-----0-----0---|
|------5-----1-----3----|---3-----3-----3-----3---|
|------5-----2-----3----|---2-----2-----2-----2---|
|------5-0---------3-0--|-------------------------|
|----5-----------1------|-0-----0-----0-----0-----|
|--3-------1---1--------|-------------------------|


4/4,   .   ,   .     ,   .   ,   . 1'10"
|----------------0-|------------------||
|------------3-----|---3---------3p0--||
|--------2---------|-------2---2------||
|----3-------------|---------3--------||
|--0---------------|------------------||
|------------------|------------------||


PART C:
   ,     .   ,   .     ,   .   ,   .     ,     .   ,   .
||-------------------|-----------------|-------------------|
||-0h1p0-1---------3-|-----1-----0-----|-0h1p0-1---------0-|
||---------2-----2---|-----------------|---------2-----2---|
||-------------2-----|---2-----2-----2-|-------------2-----|
||-0---------0-------|-0-----0-----0---|-0---------0-------|
||-------------------|-----------------|-------------------|


  ,   .   ,   .     ,     .   ,   .     ,   .   ,   .
|-----------------|-------------------|-----------------|
|-----------------|-0h1p0-1---------0-|-----1-----3-----|
|-----2-----0-----|---------2-----2---|-----------------|
|---2-----2-----2-|-------------2-----|---2-----2-----2-|
|-0-----0-----0---|-0---------0-------|-0-----0-----0---|
|-----------------|-------------------|-----------------|


  ,   .   ,   .     ,   .   ,   . 1'22"
|-----------------|------------------||
|-5---5-3---3-1---|-1-0---0---0-1-0--||
|---5-----4-----2-|-----0---2--------||
|-----------------|------------------||
|-0-----0-----0---|---0-----0--------||
|-----------------|------------------||


PART D:
   ,   .   ,   .     ,   .   ,   .     ,   .   ,   .
||-0---0-----------|---------1p0-----|-0---0-----------|
||---3---1-----1-0-|-----3-------3---|---3---1-----1-0-|
||-----------0-----|---0---0-------0-|-----------2-----|
||-----------------|-----------------|-----------------|
||-3-------3-------|-2---2---2-------|-0-------0-------|
||-----------------|-----------------|-----------------|


  ,   .   ,   .     ,   .   ,   .     ,   .   ,   .
|---------1p0-----|-0---0-----------|---------1p0-----|
|-----3-------3---|---3---1-----1-0-|-----3-------3---|
|---0---0-------0-|-----------0-----|---0---0-------0-|
|-----------------|-----------------|-----------------|
|-----------------|-3-------3-------|-2---2---2-------|
|-3---3---3-------|-----------------|-----------------|


  ,   .   ,   .     ,   .   ,   .     ,   .   ,   .
|-0---0-----------|-----------------|-----------------|
|---3---1-----1-0-|-----------------|-0---------0-----|
|-----------2-----|-----0-----0-----|---2-0-2---0---0-|
|-----------------|---0-----0-----0-|-----------------|
|-0-------0-------|-----------------|-----------------|
|-----------------|-3-----2-----0---|-0-------0---0---|


  ,   .   ,   .     ,   .   ,   .  3/4,     .     .  1'38"
|-----------------|-0---1---2---3---|-4-----5p0---7-----||
|-----0---1---3---|---------------0-|----0-----0-----0--||
|-2-----0---0---0-|---0---2---2-----|-------------------||
|---2-------------|---------0-------|-------------------||
|-0-------0---2---|-3---------------|-------------------||
|-----3-----------|-----1-------3---|-0-----0-----0-----||


PART B2:
4/4 ,   .   ,   .     ,   .   ,   .     ,   .   ,   .
||--8-7-------------|---------5-------|-8-7-------------|
||-----10-8--10---7-|--10-7-----5-----|----10-8--10---7-|
||--------9---9---7-|-----7-----5-----|-----------9---7-|
||------------------|-0-----0---------|-----------------|
||--0-------0---0---|-------------0---|-0-------0---0---|
||------------------|-----------------|-----------------|


  ,   .   ,    .     ,   .   ,   .     ,   .    ,   .
|-------5----------|-8-7-------------|-----8----------3-|
|---8-----7------0-
 Comments (click here to add a non-facebook comment)
where is the rest of classical gas
-nothreat | 1/21/2012
Home | FAQs | Privacy | Terms | Contact
Top 100 Tab Sites