Give Kudos?
Are you sure you want to give kudos to jca4jc?

Add To Songbook?
Are you sure you want to add this song to your songbook?


3,430 bands | 16,491 songs
Search: Register FREE! | Login
Browse Songs:
Browse Bands:
Tool Panel
Discuss This Song

1 2 3 4 5



Mason Williams - Classical Gas (Chord)
Submitter: jca4jc (0) on 1/14/02
Month Views: 11 | Total Views: 5,972
Help! We need a moderator for this artist. | Report This Song?
Song Tools

Comment

Songbook

Kudos

Show Chords

Print

Tabbed by:  John Kean

INTRO:

  3/4
   Am            G              Em             Am
E|-------------|--------------|--------------|--------------|
B|-1-------1---|----0---------|----0---------|--------------|
G|-----2-------|---0----------|---0--2-0-----|---2----------|
D|-------------|--0-----------|--2-----------|--2-----------|
A|-0-----------|--------------|--------------|-0------------|
E|-------------|-3--------2---|-0------------|--------------|


   Am             G               Em              Am
E|--------------|---------------|---------------|-----------|
B|---0h1--0h1---|----0----------|----0--------0-|-----------|
G|--2---2-------|---0--------2--|---0--2-0-0h2--|---2-------|
D|--------------|--0--------4---|--2------------|--2--------|
A|-0------------|---------------|---------------|-0---------|
E|--------------|-3--------2----|-0-------------|-----------|


                       4/4
   G     Am    G        C       Am        Em
E|--------------------|-0---------------|-------------|
B|-----0-----1-----3--|-------3-1---3---|---1--0------|
G|---0-----2-----0----|-----0-----------|-------------|  Pause...
D|--------------------|-----------------|-2-----------|
A|-------0-----2------|-3-------0-------|-------------|
E|-3------------------|-----------------|-------------|


PART I:
                                                         ...................
    4/4                                                   1,2,3.           |
    Am                  G                Em               Am
E||--------------------|----------------|----------------|-----------------||
B||--0h1p0---0---1---0-|----------------|0---------0-----|-----------------||
G||*-------2-----2---0-|----0-----0-----|--2-0-2-------2-|----2-----2-----*||
D||*-------------------|--0-----0-----0-|----------------|--2-----2-----2-*||
A||--0---------0---0---|----------------|----------------|0-----0-----0----||
E||--------------------|3-----2-----0---|0-------0---0---|-----------------||
                          
                              
 ........................
  4.                                                  2/4     4/4
   Am      G         Am      G       C       Am        Em      F    Am
E|-----------------|---------------|-0---------------|-------|-------------|
B|-------0-----0-1-|-----1-----3---|---1---3-1---3---|---1-0-|-------------|
G|-----2-----0-----|---2-----0-----|-----0-----2-----|-0-----|-2--0-2-2--0-|
D|---2-------------|---------------|---------------2-|-------|-3-----------|
A|-0---------------|-0-----2-----2-|-3-------0-------|-------|------0------|
E|---------3-------|---------------|-----------------|-------|-------------|


                                   6/4                       3/4
   Am      G         Am    G        C     F     D7    G       E
E|-----------------|--------------|-0-----1-----2-----3-----|-4---5---7---|
B|-------0-----0-1-|-----1-----3--|---1-----1-----1-----3---|---0---0---0-|
G|-2---2-----0-----|---2-----0----|-----0-----2-----2-----0-|-------------|
D|---2-------------|--------------|-------------0-----------|-------------|
A|-0---------------|-0-----2------|-3-----0-----------2-----|-------------|
E|---------3-------|--------------|-------------------------|-0---0---0---|


  4/4
   Am                D                 Am                D
E|-8-7-5-----5-----|---5-----5-------|-8-7-5-----5-----|-------5---------|
B|-5-----8-------7-|-------7---5-----|-------8-------7-|---8-----8---7---|
G|-----------------|-----------------|-----------------|-----------------|
D|-----------------|-0---0---0---0---|-----------------|-0---0---0---0---|
A|-0-------0---0---|-----------------|-0-------0---0---|-----------------|
E|-----------------|-----------------|-----------------|-----------------|


   Am                D             G     C   F   Bb  A7sus4
E|-8-7-5-----5-----|---8---5-----5-3-|---3---1---1-----|-0---0---0---0---|
B|-------8-------7-|---------8-----3-|---5---1---3-----|-3---3---3---3---|
G|-----------------|---------------4-|---5---2---3-----|-0---0---0---0---|
D|-----------------|-0---0---0---0-5-|---5---3---3-----|-2---2---2---2---|
A|-0-------0---0---|---------------5-|---3---3---1---0-|---0---0---0---0-|
E|-----------------|---------------3-|-------1---------|-----------------|


   Dm9
E|--------0-----|
B|-----3--------|
G|---2----------|  Pause...
D|-3------------|
A|--------------|
E|--------------|


PART II:

  4/4
   Db
E|-----------------|-----------------|
B|-----------------|-----------------|
G|-----------------|-----------------|
D|-----------------|-----------------|
A|-4---4---4---4---|-4---4---4---4---|
E|-----------------|-----------------|


   Db                Gb/Ab   Db
E|---------------2-|---2-------------|-----------------|-----------------|
B|-6-6---6-------2-|---2---6-6-------|-----------------|-----------------|
G|-6-6---6-------3-|---3---6-6-------|-----------------|-----------------|
D|-6-6---6---------|-------6-6-------|-----------------|-----------------|
A|-4---4---4---4---|---------4---4---|-4---4---4---4---|-4---4-----------|
E|-----------------|-4---4-----------|-----------------|---------4---4---|


   E                 A/B     E
E|---------------5-|---5-------------|-----------------|-----------------|
B|-9-9---9-------5-|---5---9-9-------|-----------------|-----------------|
G|-9-9---9-------6-|---6---9-9-------|-----------------|-----------------|
D|-9-9---9---------|-------9-9-------|-----------------|-----------------|
A|-7---7---7---7---|---------7---7---|-7---7---7---7---|-7---7---7---7---|
E|-----------------|-7---7-----------|-----------------|-----------------|


   Db                Gb/Ab   Db
E|---------------2-|---2-------------|-4---------------|-----------------|
B|-6-6---6-------2-|---2---6-6-------|-------------7-6-|-7-6-------------|
G|-6-6---6-------3-|---3---6-6-------|-----------------|-------6---------|
D|-6-6---6---------|-------6-6---6---|-----------------|-----------------|
A|-4---4---4---4---|---------4---4---|-4---4---4---4---|-4---4-----------|
E|-----------------|-4---4-----------|-----------------|---------4---4---|


   E                 A/B     E
E|---------------5-|---5-------------|-7----------------|------------------|
B|-9-9---9-------5-|---5---9-9-------|-------------10-9-|-10-9-------------|
G|-9-9---9-------6-|---6---9-9-------|------------------|--------9---------|
D|-9-9---9---------|-------9-9---9---|------------------|------------------|
A|-7---7---7---7---|---------7---7---|-7---7---7---7----|-7----7---7---7---|
E|-----------------|-7---7-----------|------------------|------------------|


   Db                Gb/Ab   Db        Db                Gb/Ab   Db
E|-----------------|-2---2-----------|-----------------|-2---2-----------|
B|-6-6---------6---|-2---2---6-------|-6-6---------6---|-2---2---6-------|
G|-6-6---6---6-6---|-3---3---6-------|-6-6---6---6-6---|-3---3---6-------|
D|-6-6---6-----6---|---------6-------|-6-6---6-----6---|---------6-------|
A|-4---4---4---4---|---------4---4---|-4---4---4---4---|---------4---4---|
E|-----------------|-4---4-----------|-----------------|-4---4-----------|



     E                 A/B     E       E                 A/B     E     A
E|-----------------|-5---5-----------|-----------------|-5---5---------5-|
B|-9-9---------9---|-5---5---9-------|-9-9---------9---|-5---5---9-----5-|
G|-9-9---9---9-9---|-6---6---9-------|-9-9---9---9-9---|-6---6---9-----6-|
D|-9-9---9-----9---|---------9-------|-9-9---9-----9---|---------9-----7-|
A|-7---7---7---7---|---------7---7---|-7---7---7---7---|---------7---7-7-|
E|-----------------|-7---7-----------|-----------------|-7---7---------5-|


  6/4                                                 4/4
     D   G   C   F   Bb  A7sus4                        Dm9     ad.lib.
E|---5---3---3---1---1-----|-0- 
 Comments (click here to add a non-facebook comment)
Home | FAQs | Privacy | Terms | Contact
Top 100 Tab Sites