Give Kudos?
Are you sure you want to give kudos to Rondo Fondu?

Add To Songbook?
Are you sure you want to add this song to your songbook?


3,422 bands | 16,457 songs
Search: Register FREE! | Login
Browse Songs:
Browse Bands:
Tool Panel
Discuss This Song

1 2 3 4 5



Marshall Tucker Band - Can't You See (Tab)
Album: Searchin' for a Rainbow (2004)
Submitter: Rondo Fondu (14) on 4/19/04 1 comment
Month Views: 42 | Total Views: 21,582
Moderator: Ray Terry | Report This Song?
Song Tools

Comment

Songbook

Kudos

Show Chords

Print

Can't You See
by Toy Caldwell
           
D        xx0232  
Dsus2/C  x30230  
G        3x0003   
Dsus4    xx0233         
Dsus2    xx0230   
Dsus4/C  x30233    
D7       xx0212       
D7sus4   xx0213

All Guitars Standard Tuning
Guitar I Fingerstyle Acoustic


 Intro
  Moderately Q=84
  D             DsusD
 4/4
  Gtr I
  E S S S S S S S S S S S S S S
|-------2-----3---2---------2---|
|---3-----3---------3---3-------|
|-----2---------2---------2-----|
|-0---------0---------0---------|
|-----------------------------0-|
|-------------------------------|


  Dsus2/C         DsusDsus2/C G
  E S S +S  S S S e E E S S   E e E S S S S S S S S S S
|-----------0-----3-0-0-----|-----3---------------------|
|-----3-(3)---3---3-3-3-3---|-0-x-0---------0-----0-----|
|-----------------2-2-2-2---|-0---0-0-----0-----0-------|
|---0-----------0---0---0---|-0---0-0-0h2-----0-------0-|
|-3-----------------------0-|-----------------------2---|
|---------------------------|-3-------------------------|


  D         DsusD                    DsusD       Dsus2/C
  E E E S S S S E E S S   S E. E S S S S E E E   Q  E E E E S S e
|-----2-----3---2-2-----|-0h2--2-----3---2-2---|----0---0----------|
|-----3-3---3---3-3-3---|-3----3-3---3---3-3-3-|-3--3---3-----3----|
|---2-2-2---2---2-2-2---|-2----2-2---2---2-2-2-|----2---2----------|
|-0---0---0---0-------0-|----------0---0---0-0-|------0-0-0-----0--|
|-----------------------|----------------------|-3----------3------|
|-----------------------|----------------------|-------------------|


  G                D           Dsus4     D     DsusD
  Gtr II
  W                W                               E    E Q     E   E Q
                                                   |    | |     |   | |
                                                   /    / /     /   / /

  Gtr I
  Q  E E E E E E   E S S S S S S S S S S S S S S   S E.   E S S S S E E E
|----3-----------|-------2-----3---3-----2---0---|-0h2----2-----2---2-2---|
|-0--0---0-0-0---|---3-----3---3-----3---3-----3-|-3------3-3---3---3-3-3-|
|----0-0-0-0-0---|-----2---------2---------2-----|-2------2-2---2---2-2-2-|
|----0-0-0---0-0-|-0---------0---------0---------|------------0---0---0-0-|
|----------------|-------------------------------|------------------------|
|-3--------------|-------------------------------|------------------------|


  Dsus2/C                   G
  E E S S S S E S S E   E   E E S S S S E E S S E
  | | | | | | | | | |   |   | | | | | | | | | | |
  / / / / / / / / / /   /   / / / / / / / / / / /

  Q   E   E   E E   S S e   Q   E   E   E E E   E
|-----0-------0-----------|-----------------------|
|-3---3-------3-------3---|-0---0-------0-0-0-----|
|-----2-------2-----------|-----0---0---0-0-0-----|
|---------0---0-0-------0-|-----0---0---0---0---0-|
|-3-----------------3-----|-----------------------|
|-------------------------|-3---------------------|


  D             Dsus4
  E E   E   E    E    S S +S S S S
  | |   |   |    |    | |  | | | |
  / /   /   /    /    / /  / / / /

  E S S S S S S +S  S S S  S S S S
|-------2-----3-(3)--------0--------|
|---3-----3---3-(3)---3------3------|
|-----2-------------2---2--------2--|
|-0---------0-------0----------0----|
|-----------------------------------|
|-----------------------------------|


  D                           Dsus2/C                     Dsus4/CDsus2/G
  Gtr II
  E E S E S E   E   E   E     E      E   E    S S  S  S S S +S S S S
  | | | | | |       |   |     |      |   |    | |  |  | | |  | | | |
  / / / / / /       /   /     /      /   /    / /  /  / / /  / / / /

  Gtr III
  H         S S S S S S S S   S    S S S S E.     +Q.            E
|---------------------------|----------------------------------------|
|---------------------------|----------------------------------------|
|---------------------7-9-7-|-9b11-9-7---7-7------(7)----------------|
|-----------------7-9-------|----------9-----------------------------|
|-------------7-9-----------|----------------------------------------|
|---------------------------|----------------------------------------|
|
| Gtr I
| H         H                 Q          S S  S S +Q         S S E
|-2---------2---------------|--------------------------------0-------|
|-3---------3---------------|-------------------3-(3)--------3-3-----|
|-2---------2---------------|--------------2---------------------2---|
|-0-------------------------|-----------------0------------------0---|
|---------------------------|------------3---------------------------|
|---------------------------|----------------------------------------|


  E  E      E  S   S   E E     E      E
  |  |      |  |   |   | |     |      |
  /  /      /  /   /   / /     /      /

               |--3--|   |-3-|
  E.   S    E  S S   S e S S S S E      S
|-----------------------------------------|
|-----------------------------------------|
|------9b10----9p7-----7-9p7---7-9b11-----|
|--------------------9-------9------------|
|-----------------------------------------|
|-----------------------------------------|
|
| Q         E.     S   E E     E      E
|-----------------------------------------|
|-0----------------0-----0------------0---|
|-0---------0------0---0-0-----0------0---|
|-0---------0----------0-------0----------|
|-----------------------------------------|
|-3--------------------3-------3----------|


  D                             Dsus4
  E   E       E    S  S  S  E   S +S  E   S
  |   |       |    |  |  |  |   |  |  |   |
  /   /       /    /  /  /  /   /  /  /   /

      |--3--|
  S S S S   S S S  S  S  Q         E.     S
|-----------------------------------------------|
|-----------------------------------------------|
|-9-7-9p7-----7---------------------------9b11==|
|-----------9---9p(7)---------------------------|
|-----------------------------------------------|
|-----------------------------------------------|
|
| E   S   S   S S  S  S +S  S S S  E    S S
|-------------2-------3-(3)-3-----------2-------|
|-----3---------3-----3-(3)---3----3------3-----|
|---------2-------------------------------------|
|-0----------------0------------0---------------|
|-----------------------------------------------|
|-----------------------------------------------|


  D                              Dsus2/C               Dsus4/CDsus2/C
   E   E   E S S E E E   E        E   E  E   S S S S S S +S S E
   |   |   | | | | | |   |        |   |  |   | | | | | |  | | |
   /   /   / / / / / /   /        /   /  /   / / / / / /  / / /

  +H.                E   E       +E  +E  S S S S H
|------------------------------|--------------------------------|
|------------------------------|--------------------------------|
|-(9)r-------------------9b11==|=(9)r(9)-7h9-7---7--------------|
|------------------------------|--------------------------------|
|------------------------------|--------------------------------|
|------------------------------|--------------------------------|
|
|  E   S S E E   E E S S E        Q      Q       E   E    E   E
|--2---------2-----2-3---2-----|---------0-------0---0----0---0-|
|--3-------3-3---3-3-3---3-----|--3------3-------3---3----3---3-|
|--2---2-2-2-----2---2---2-----|---------2-------2---2----2---2-|
|--0-------0-----0-----0-------|---------0----------------------|
|------------------------------|--3-----------------------------|
|------------------------------|--------------------------------|


  G
  E E S S E   E    E   E      E
  | | | | |   |    |   |      |
  / / / / /   /    /   /      /

  H           S  S S S S    S S S
|---------------------------------|
|---------------------------------|
|--------------------7-9b11-9-7---|
|------------------9------------9-|
|---------------10----------------|
|---------------------------------|
|
| E E S S S S S  S S S S    S E
|------ 
 Comments (click here to add a non-facebook comment)
as a person who often saw Toy play this and having player it mant times myself.this is as close as it gets without having Toy and the old bunch jaming with ya.

-oldcountryboy | 6/26/2004
Home | FAQs | Privacy | Terms | Contact
Top 100 Tab Sites