Give Kudos?
Are you sure you want to give kudos to guitarviper?

Add To Songbook?
Are you sure you want to add this song to your songbook?


3,430 bands | 16,491 songs
Search: Register FREE! | Login
Browse Songs:
Browse Bands:
Tool Panel
Discuss This Song

1 2 3 4 5



Marshall Tucker Band - Can't You See (Solo)
Album: Searchin' for a Rainbow (2004)
Submitter: guitarviper (10) on 2/4/03 1 comment
Month Views: 28 | Total Views: 10,920
Moderator: Ray Terry | Report This Song?
Song Tools

Comment

Songbook

Kudos

Show Chords

Print

Can't You See - Solo
Marshall Tucker Band 
Tabbed by Guitarviper

Starting around 02:08 to 02:32
---------------------------------------------------------------------------------------------------
--17b^r-15----15-17b^--17br-17br-17br-15----15-17b^--17br-15-17br--15-17p15----15-17b^-17br-15-17--
-----------16----------------------------16---------------------------------16---------------------
---------------------------------------------------------------------------------------------------
---------------------------------------------------------------------------------------------------
---------------------------------------------------------------------------------------------------
                          
---------------------------19--17----------19--17----------19--17----------------------------------
--15-15----15----------------------15--------------15--------------17-15----15-15-15----17b-17-15--
--------16----16-14\-------------------16--------------16----------------16----------16------------
---------------------------------------------------------------------------------------------------
---------------------------------------------------------------------------------------------------
---------------------------------------------------------------------------------------------------


 Comments (click here to add a non-facebook comment)
When you say 2:08, is this from a live version?
-DougieLove | 5/21/2003
Home | FAQs | Privacy | Terms | Contact
Top 100 Tab Sites