Give Kudos?
Are you sure you want to give kudos to jdomary?

Add To Songbook?
Are you sure you want to add this song to your songbook?


3,422 bands | 16,457 songs
Search: Register FREE! | Login
Browse Songs:
Browse Bands:
Tool Panel
Discuss This Song

1 2 3 4 5



Marshall Tucker Band - Can't You See (Intro)
Album: Searchin' for a Rainbow (2004)
Submitter: jdomary (10) on 1/12/04
Month Views: 30 | Total Views: 8,089
Moderator: Ray Terry | Report This Song?
Song Tools

Comment

Songbook

Kudos

Show Chords

Print

Can't You See

Marshall Tucker Band

Tabbed by: jdomary


Though it's not note for note.  This is how I play it and everyone 
knows what song it is.


  D                              D/C                    G

E-0h2--------------3-2-0h2p0------------------3-0-------3---
B-----3-----3-----------------3---3-----3-----3-3-3-----3---
G-------2-----2-----------------2-0-0-----0---------0-------
D-0-------0-----0--0-0-0--------------0-----0---------0-----
A---------------------------------3-----------3-3-----------
E-------------------------------------------------------3---

                        D           

E-----------------------2-----2-----3-2---------------------
B-3-----------------------3-----3---------------------------
G---0---0-------0-----------2-----2-------Then repeat once--
D-----0-------0-------0-0-----------0-0---------------------
A---------0h2-----0h2---------------------------------------
E-----------------------------------------------------------
 Comments (click here to add a non-facebook comment)
Home | FAQs | Privacy | Terms | Contact
Top 100 Tab Sites