Give Kudos?
Are you sure you want to give kudos to jdomary?

Add To Songbook?
Are you sure you want to add this song to your songbook?


3,422 bands | 16,457 songs
Search: Register FREE! | Login
Browse Songs:
Browse Bands:
Tool Panel
Discuss This Song

1 2 3 4 5



Lynyrd Skynyrd - Tuesday's Gone (Intro)
Submitter: jdomary (11) on 8/21/03 1 comment
Month Views: 15 | Total Views: 5,055
Moderator: Randall53 | Report This Song?
Song Tools

Comment

Songbook

Kudos

Show Chords

Print

Tuesday's Gone

Lynyrd Skynyrd

Tabbed by: jdomary

E-----------------------------------------------------------------------------------
B--------------------------------------------------------------------5---5-------5--
G-4brbr-2~~~~--4brbr-----4brbrbr-------------2-------------------2h4-4b--4br--2--4--
D--------------------2------------4~~~----4------------------2h4--------------------
A------------------------------------------------5p4-5---2h4------------------------
E-----------------------------------------------------------------------------------

E--------------0--------0--------0--------------------------------------------------
B-5/7---5---3-----3--------3--------3-----2h3-5-2-----------------------------------
G-4/6---4---2--------------------------------------2~~------------------------------
D--------------------0--------0--------0--------------------------------------------
A-----------------------------------------------------------------------------------
E-----------------------------------------------------------------------------------
 Comments (click here to add a non-facebook comment)
i love all skynyrd but this is a classic
-southernoutlaw7 | 7/14/2005
Home | FAQs | Privacy | Terms | Contact
Top 100 Tab Sites