Give Kudos?
Are you sure you want to give kudos to jdomary?

Add To Songbook?
Are you sure you want to add this song to your songbook?


3,422 bands | 16,457 songs
Search: Register FREE! | Login
Browse Songs:
Browse Bands:
Tool Panel
Discuss This Song

1 2 3 4 5



Lynyrd Skynyrd - Sweet Home Alabama (Intro)
Submitter: jdomary (11) on 7/30/03 3 comments
Month Views: 12 | Total Views: 12,960
Moderator: Randall53 | Report This Song?
Song Tools

Comment

Songbook

Kudos

Show Chords

Print

Sweet Home Alabama

Lynyrd Skynyrd

Tabbed by: jdomary

e-----------------------------------------------------------------
b-----3-----------3-----------3-----------------------------------
g-------2-----------0---------0-------------2p0-------------------
d-0-0-----0-----------0-------------0-2p0-------------------------
a-----------3-X-3---------------0h2-------3-----------------------
E-----------------------3-X-3-------------------------------------

e-----------------------------------------------------------------
b-----3-----------3-----------3-----------------------------------
g-------2-----------0---------0----0-2p0---4p0-0-5b~--------------
d-0-0-----0-----------0----------0-------0------------------------
a-----------3-X-3-------------------------------------------------
E-----------------------3-X-3-------------------------------------

Repeat first line twice but end the second time like this:

e----------------------
b----------------------
g-------0-let ring...--
d-----0----------------
a-1/2------------------
E----------------------
 Comments (click here to add a non-facebook comment)
Excelent tab. I've come across alot of Sweet Home tabs and yours is dead on.
-high_octane | 9/16/2003
awesome. I love it.
-Darrrik | 9/25/2005
dude thats not how u even play the song where did u get that from a pawn shop hope u will learn it the real way
-tsc100 | 6/19/2010
Home | FAQs | Privacy | Terms | Contact
Top 100 Tab Sites