Give Kudos?
Are you sure you want to give kudos to yinielin?

Add To Songbook?
Are you sure you want to add this song to your songbook?


3,434 bands | 16,528 songs
Search: Register FREE! | Login
Browse Songs:
Browse Bands:
Tool Panel
Discuss This Song

1 2 3 4 5



Lynyrd Skynyrd - Sweet Home Alabama (second Solo) (Solo)
Submitter: yinielin (1) on 5/2/04
Month Views: 2 | Total Views: 6,504
Moderator: Randall53 | Report This Song?
Song Tools

Comment

Songbook

Kudos

Show Chords

Print

By:Yinielin
Lynyrd Skynyrd, Sweet Home Alabama



E-----------------------------------------------------------
B--------------------------------------------8---8h10b------
G-----0-2/4-2-2-3b-2b-2brbr-2br-0---0bar---9---9------------
D-0h2-----------------------------2-------------------------
A-----------------------------------------------------------
E-----------------------------------------------------------

E-------------------------------------------------------------
B-10b-8---8---------------------------------------------------
G-------9---9/7-7-7-7-7-7-7---9-7-7------12----12-14p12----12-
D---------------------------9-------9/14----14----------14----
A-------------------------------------------------------------
E-------------------------------------------------------------

E-----------------------------------------------------------
B-----------------------------------------------------------
G-17p12----12-16p12----12-16p12----12-16p12----12-16p12-----
D-------14----------14----------14----------14----------14--
A-----------------------------------------------------------
E-----------------------------------------------------------

E----------------------------------------------------------
B----------------------------------------------------------
G-16p12----12-16p12----12-14p12----12-14p12----12-17p12----
D-------14----------14----------14----------14----------14-
A----------------------------------------------------------
E----------------------------------------------------------

E------------------------------------------------------------
B------------------------------------------------------------
G-12-17p12----12-17p12----12----------12----------12----12h14
D----------14----------14----14----------14/12/14----14------
A-------------------------------13/14------------------------
E------------------------------------------------------------

E-------------12-------------------------------------------
B-12----12h15----15----------------------------------------
G----14----------------------------------------------------
D----------------------------------------------------------
A----------------------------------------------------------
E----------------------------------------------------------

E-12h15-15-15-15-15-15-15-15-15-15-15-15-15-15-15-15--13b--
B----------------------------------------------------------
G----------------------------------------------------------
D----------------------------------------------------------
A----------------------------------------------------------
E----------------------------------------------------------

E-12----12-----12-----12-----12--------12-----12--------------
B----15----15b----15b----15b----13-x------15b-----15p12----12-
G----------------------------------14b------------------15----
D-------------------------------------------------------------
A-------------------------------------------------------------
E-------------------------------------------------------------

E---------------------------------------------------------------
B---------------------------------------------------------------
G-15p14-12-------x----------------------------------------------
D----------14-12-x----------------------------------------------
A----------------14/12-10-10-10-12----10h12-12-10----10-10br-10-
E----------------------------------12-------------12------------

E------------------------------------------------------------------
B--------------------------------------------------------12-15p12--
G----------------------------------12----12-14----12-14b-----------
D----------------12-14----12-12h14----14-------14------------------
A-12----10-12/14-------14------------------------------------------
E----12------------------------------------------------------------

E-------------------15-17b--17b--17brb-17-15----15---------------
B-15p12-------15h17--------------------------17----17-15-12------
G-------14/16-----------------------------------------------15---
D----------------------------------------------------------------
A----------------------------------------------------------------
E----------------------------------------------------------------

E--------------------------------------------------------
B-12-----------------------------------------------------
G----15p14-12-------12~~---------------------------------
D-------------14-12--------------------------------------
A--------------------------------------------------------
E--------------------------------------------------------
 Comments (click here to add a non-facebook comment)
Home | FAQs | Privacy | Terms | Contact
Top 100 Tab Sites