Give Kudos?
Are you sure you want to give kudos to steamwhistle_28?

Add To Songbook?
Are you sure you want to add this song to your songbook?


3,047 bands | 13,579 songs
Search: Register FREE! | Login
Browse Songs:
Browse Bands:
Tool Panel
Discuss This Song

1 2 3 4 5





Lynyrd Skynyrd - Mad Hatter (Bass)
Submitter: steamwhistle_28 (4) on 11/29/05 2 comments
Month Views: 32 | Total Views: 2,628
Moderator: Randall53 | Report This Song?
Song Tools

Comment

Songbook

Kudos

Show Chords

Print

Mad Hatter- Lynyrd Skynyrd

FIG. 1

G-----------------------------
D--------17-14----------------
A-----------------------------
E---0/12-------3/12-5-5-5-7---

FIG. 2

G---------
D---------
A---------
E---5-3---

FIG. 3

G-----------
D-----------
A-----------
E---7-5-3---

FIG. 4

G------------------------------------------
D------12h14-------12----14p12h14----------
A---12-------12-10----10----------8-7-10---
E------------------------------------------

FIG. 5

G-----------------------
D-----------------------
A-----------------------
E---0-3-5-3-0-0-3-5-3---

FIG. 6

G----------
D----------
A---10-9---
E----------

FIG. 7

G--------------------------------------------------------------------
D-----------------------12-12-12-12-12-12-12-12-12-12-12-12-12-12/---
A---10-10-10-10-9-9-9-9----------------------------------------------
E--------------------------------------------------------------------

Order

FIG. 1 (x12)
FIG. 2
FIG. 1
FIG. 3
FIG. 1 (x6)
FIG. 2
FIG. 1
FIG. 3
FIG. 1 (x2)
FIG. 4 (x4)
FIG. 5 (x4)
FIG. 6
FIG. 5
FIG. 6
FIG. 5
FIG. 7
FIG. 1 (x6)
FIG. 3 (x2)
FIG. 1 (x24)
 Comments (click here to add a non-facebook comment)
Thanks.
-Maedhros | 12/2/2005
been waitin on this for a long time. any chance on the guitar tabs? thanks

chris
-cpova | 12/7/2005
Home | FAQs | Privacy | Terms | Contact
Top 100 Tab Sites