Give Kudos?
Are you sure you want to give kudos to yinielin?

Add To Songbook?
Are you sure you want to add this song to your songbook?


3,430 bands | 16,491 songs
Search: Register FREE! | Login
Browse Songs:
Browse Bands:
Tool Panel
Discuss This Song

1 2 3 4 5



Lynyrd Skynyrd - Gimme Three Steps (Tab)
Submitter: yinielin (3) on 8/7/03 3 comments
Month Views: 18 | Total Views: 4,590
Moderator: Randall53 | Report This Song?
Song Tools

Comment

Songbook

Kudos

Show Chords

Print

By:Yinielin 
Lynyrd Skynyrd, Gimme Three steps

Look at chord sheet ive submitted to find out 
order of the licks. Ill also add a soundbyte to
show you what im talking about.   


    Lick For D Chord
E-------------------------------
B-------------------------------
G-------------------------------
D--7-7-9-7-7-9-7-7-9-7----------
A--5-5-5-5-5-5-5-5-5-5----------
E-------------------------------
      Lick For A Chord
E-------------------------------
B-------------------------------
G-------------------------------
D--2-2-4-2-2-4-2-2-4-2----------
A--0-0-0-0-0-0-0-0-0-0----------
E-------------------------------
The Lick for E and A for instrumental breaks
E-------------------------------
B-------------------14----------
G-------------------14----------
D----------2--------14----------
A------2-4---4-2-0--------------
E--3-4--------------------------
The Lick for E and A while singing
E---------------------------------
B---------------------------------
G-------------------------2-------
D----------2----------------------
A------2-4---4-2-0--0-2/4---4p3-0-
E--3-4----------------------------
    Lick For G and E Chord
E-------------------------
B-------------------------
G-12-12-11-10-9-----------
D-12-12-11-10-9-----------
A-------------------------
E-------------------------
    Lick For A and D
E-------2-2-----2-2------
B-2-2-2-3-3-2-2-3-3------
G-2-2-2-2-2-2-2-2-2------
D-2-2-2-0-0-2-2-0-0------
A------------------------
E------------------------
 Comments (click here to add a non-facebook comment)
Wow a 7? That seems really low to me. Looks like a good
tab.....
-cmtboy | 8/20/2003
I give it a 10,listen to the sound byte you did a good job and the 7 I feel is a low a low mark
-oldcountryboy | 8/21/2003
It all sounds about right to me except for the
instrumental breaks.. I think that should be

E|------------------
B|------------------
G|------------------
D|----------2-------
A|------2-4---3b-0--
E|0-3-4-------------









-JoeWallace | 8/27/2003
Home | FAQs | Privacy | Terms | Contact
Top 100 Tab Sites