Give Kudos?
Are you sure you want to give kudos to yinielin?

Add To Songbook?
Are you sure you want to add this song to your songbook?


3,425 bands | 16,469 songs
Search: Register FREE! | Login
Browse Songs:
Browse Bands:
Tool Panel
Discuss This Song

1 2 3 4 5



Lynyrd Skynyrd - Gimme Three Steps (Solo)
Submitter: yinielin (0) on 8/8/03
Month Views: 1 | Total Views: 3,506
Moderator: Randall53 | Report This Song?
Song Tools

Comment

Songbook

Kudos

Show Chords

Print

By:Yinielin
Lynyrd Skynyrd, Gimme Three Steps

E-----------------------------------------
D----------------------------------------
G-10-9-7--10-9-7--10-9-7--10-9-7--10-9-7--
D10-9-7--10-9-7--10-9-7--10-9-7--10-9-7--
A-----------------------------------------
E-----------------------------------------

E----------------------------------------
D---------------------------------------
G--9---9-9-9-9---7-9-7-7-9---------------
D-9bh-9-9-9-9br-------------------------
A----------------------------------------
E----------------------------------------

E-----------------------------------------
D----------------------------------------
G-10-9-7--10-9-7--10-9-7--10-9-7--10-9-7--
D10-9-7--10-9-7--10-9-7--10-9-7--10-9-7--
A-----------------------------------------
E-----------------------------------------

E-------------------------------
D------------------14----------
G-------------------14----------
D---------2--------14----------
A------2-4---4-2-0--------------
E--3-4--------------------------

E-----------------------------------------
D----------------------------------------
G-10-9-7--10-9-7--10-9-7--10-9-7--10-9-7--
D10-9-7--10-9-7--10-9-7--10-9-7--10-9-7--
A-----------------------------------------
E-----------------------------------------

E-------------------------
D------------------------
G-12-12-11-10-9-----------
D12-12-11-10-9-----------
A-------------------------
E-------------------------

E-----------------------------------------
D----------------------------------------
G-10-9-7--10-9-7--10-9-7--10-9-7--10-9-7--
D10-9-7--10-9-7--10-9-7--10-9-7--10-9-7--
A-----------------------------------------
E-----------------------------------------

E----------------2------3----------------
D-------------2-3--2-2-2----------------
G-5-4-2--5-4-2-2-2--2-2-3----------------
D5-4-2--5-4-2-2-0--2-2-0----------------
A----------------------------------------
E----------------------------------------


 
 Comments (click here to add a non-facebook comment)
Home | FAQs | Privacy | Terms | Contact
Top 100 Tab Sites