Give Kudos?
Are you sure you want to give kudos to jdomary?

Add To Songbook?
Are you sure you want to add this song to your songbook?


3,422 bands | 16,457 songs
Search: Register FREE! | Login
Browse Songs:
Browse Bands:
Tool Panel
Discuss This Song

1 2 3 4 5



Lynyrd Skynyrd - Gimme Three Steps2 (Solo)
Submitter: jdomary (11) on 8/21/03
Month Views: 19 | Total Views: 2,804
Moderator: Randall53 | Report This Song?
Song Tools

Comment

Songbook

Kudos

Show Chords

Print

Gimme Three Steps (Solo)

Lynyrd Skynyrd	

Tabbed by: jdomary	


E----------------------------------------------------------------------------------
B---------------------------------------------------------5b---5b---5br---2--------
G-10\9---7---10\9---7---10\9---7---10\9---7---10\9---7----4----4----4-----2--------
D-10\9---7---10\9---7---10\9---7---10\9---7---10\9---7-------------------------4---
A----------------------------------------------------------------------------------
E----------------------------------------------------------------------------------

E----------------------------------------------------------------------------------
B-5br---2-----2--3--2--------------------------------------------------------------
G-4-----2-----2--4--2-------10\9---7----10\9---7---10\9---7---10\9---7---10\9---7--
D----------4-----------4////10\9---7----10\9---7---10\9---7---10\9---7---10\9---7--
A----------------------------------------------------------------------------------
E----------------------------------------------------------------------------------

E-----------------------------9-\--------------------------------------------------
B---------------------------- 10\--------------------------------------------------
G-----------------------2~----9-\----10\9---7---10\9---7---10\9---7---10\9---7-----
D----------------2------2~-----------10\9---7---10\9---7---10\9---7---10\9---7-----
A----------2--4-----3b--0~---------------------------------------------------------
E-0--3--4--------------------------------------------------------------------------

E----------------------------------------------------------------------------------
B----------------8-----8-----------------------------------------------------------
G-10\9---7---------------------9-11-9~~~----10\9---7---10\9---7---10\9---7---------
D-10\9---7\3/5------5-----9/11--------------10\9---7---10\9---7---10\9---7---------
A----------------------------------------------------------------------------------
E----------------------------------------------------------------------------------

E----------------------------------------------------------------------------------
B----------------------------------------------------------------------------------
G-10\9---7---10\9---7---4---5\4---2---5\4---10\9---7-------------------------------
D-10\9---7---10\9---7---4---5\4---2---5\4---10\9---7-------------------------------
A--------------------------------------------------5-------------------------------
E----------------------------------------------------------------------------------
 Comments (click here to add a non-facebook comment)
Home | FAQs | Privacy | Terms | Contact
Top 100 Tab Sites