Give Kudos?
Are you sure you want to give kudos to aussief?

Add To Songbook?
Are you sure you want to add this song to your songbook?


3,420 bands | 16,457 songs
Search: Register FREE! | Login
Browse Songs:
Browse Bands:
Tool Panel
Discuss This Song

1 2 3 4 5



Lovin Spoonful - Rain On The Roof (Tab)
Submitter: aussief (28) on 2/14/09
Month Views: 14 | Total Views: 4,302
Moderator: kraziekhat | Report This Song?
Song Tools

Comment

Songbook

Kudos

Show Chords

Print

INTRO
   A             D             A              D            E
E|-------------|--------2----|--------------|--------2----|-----2--4----|
B|-2--3--5--2--|--3--5----3--|--2--3--5--2--|--3--5----3--|--5-------5--|
G|-------------|-------------|--------------|-------------|-------------|
D|-------------|-------------|--------------|-------------|-------------|
A|-------------|-------------|--------------|-------------|-------------|
E|-------------|-------------|--------------|-------------|-------------|

   A                Em               A
E|--5--7--9---5--|---3---2---------|------------------|
B|---------------|----------5--3---|---5--------------|
G|---------------|-----------------|------------------|
D|---------------|-----------------|------------------|
A|---------------|-----------------|------------------|
E|---------------|-----------------|------------------|


D
You and me and rain on the roof
A               D
Caught up in a summer shower
A                D
Dryin' while it soaks the flowers
E               A
Maybe we'll be caught for hours
Em              A
Waitin' out the sun

D
You and me were gabbin' away
                                   A
Dreamy conversation sittin' in the hay
       D                              G
Honey, how long was I laughing in the rain with you
          D                           A                 D
'Cause I didn't feel a drop 'til the thunder brought us to

(REPEAT INTRO)

D
You and me underneath the roof of tin
                                                A
Pretty comfy feelin' how the rain ain't leakin' in
        D                   G
We can sit and dry just as long as it can pour
            D                              A                 D
'Cause the way it makes you look makes me hope it rains some more

(REPEAT INTRO)

 Comments (click here to add a non-facebook comment)
Home | FAQs | Privacy | Terms | Contact
Top 100 Tab Sites