Give Kudos?
Are you sure you want to give kudos to aussief?

Add To Songbook?
Are you sure you want to add this song to your songbook?


3,430 bands | 16,496 songs
Search: Register FREE! | Login
Browse Songs:
Browse Bands:
Tool Panel
Discuss This Song

1 2 3 4 5



Lovin Spoonful - Rain On The Roof ( With Intro) (Tab)
Submitter: aussief (12) on 12/1/10 1 comment
Month Views: 2 | Total Views: 3,469
Moderator: kraziekhat | Report This Song?
Song Tools

Comment

Songbook

Kudos

Show Chords

Print

I had a request if I knew the "not so easy" intro for this one, From a 
lady in Mississippi...

Words and Music by John Sebastian   
                    

INTRO
   A                 D  A/C# D         A                    D  
E|-----------------|---------2-------|--------2-3---------|-----2-3--5---2---|
B|-2---3---5---2---|-3---5-------3---|-2----5--------5----|-3----------------|
G|---2---2---2---2-|---2---2---2---2-|---2----2---2-----2-|---2---2----2---2-|
D|-----------------|-----------------|--------------------|------------------|
A|-----------------|-----------------|--------------------|------------------|
E|-----------------|-----------------|--------------------|------------------|

   E7        A7       Em7          A7 
E|-0-2-4-0-|-5-7-9-5-|-3-2-0-----|-0---------|-----------------|
B|-3-------|-5-------|-0-----0-3-|-2---------|-----1-0---------|
G|-1-------|---------|-0-----0---|-0---------|-2-------2-0-----|
D|---------|---------|-----------|-----------|---2---------4-2-|
A|---------|---------|-----------|-----------|-----------------|
E|---------|---------|-----------|-----------|-----------------|


D
You and me and rain on the roof
A7               D
Caught up in a summer shower
A7                D
Dryin' while it soaks the flowers
E7               A7
Maybe we'll be caught for hours
Em              A7
Waitin' out the sun

D
You and me were gabbin' away
                                   A7
Dreamy conversation sittin' in the hay
       D                              G
Honey, how long was I laughing in the rain with you
          D/A                         A7                 D
'Cause I didn't feel a drop 'til the thunder brought us to

(REPEAT INTRO)

D
You and me underneath the roof of tin
                                                A7
Pretty comfy feelin' how the rain ain't leakin' in
        D                   G
We can sit and dry just as long as it can pour
            D/A                            A7                 D
'Cause the way it makes you look makes me hope it rains some more

(REPEAT INTRO)


 
 An F. K. Tab,,, Enjoy!!!!! 
 
 
 
  
 Comments (click here to add a non-facebook comment)
Great song. Nice job. KK.
-kraziekhat | 12/1/2010
Home | FAQs | Privacy | Terms | Contact
Top 100 Tab Sites