Give Kudos?
Are you sure you want to give kudos to Rondo Fondu?

Add To Songbook?
Are you sure you want to add this song to your songbook?


3,422 bands | 16,457 songs
Search: Register FREE! | Login
Browse Songs:
Browse Bands:
Tool Panel
Discuss This Song

1 2 3 4 5



Led Zeppelin - Stairway To Heaven - Complete Arrangement (Tab)
Album: Led Zeppelin IV (1971)
Submitter: Rondo Fondu (14) on 4/29/04 1 comment
Month Views: 12 | Total Views: 4,760
Moderator: jackshaw3 | Report This Song?
Song Tools

Comment

Songbook

Kudos

Show Chords

Print

Stairway to Heaven
By Jimmy Page and Robert Plant
       
Am         x 0 2 2 1 0  
G6         3 x 2 0 3 3  
Fmaj7      1 3 3 2 1 0  
C/G        3 x 2 0 1 0
A5         x 0 2 2 x x 
C/G(type2) 3 x 2 0 x x  
F(type2)   1 3 3 2 x x   
AmV        5 7 7 5 5 5
G          3 5 5 4 3 3  
F          1 3 3 2 1 1   
Am7        x 0 2 0 1 3  
Asus4      x x 5 x 3 3
D          x x 0 2 3 2 
Em/D       x x 0 9 8 7  
C/D        x x x 5 5 3    
Em         x x 2 0 0 x

Gtr I    Acoustic Guitar
Gtr II   Recorders Arranged for Electric Guitar
Gtr III  12 String Electric Guitar
Gtr IV   Lead Electric Guitar
Gtr V    Electric Guitar Overdriven

All Guitars Standard Tuning

  Slowly Q=72
  Am      E+5/G#    C/G     D/F#      Fmaj7
 4/4
  Gtr I
  E E E E E E E E   E E E E E E E E   E  E E E +E  E E E
|-------5-7-----7-|-8-----8-2-----2-|-0------------0-----|
|-----5-----5-----|---5-------3-----|----1---1-(1)---1---|
|---5---------5---|-----5-------2---|------2-----------2-|
|-7-------6-------|-5-------4-------|-3------------------|
|-----------------|-----------------|--------------------|
|-----------------|-----------------|--------------------|
  H       H         H       H         H.             Q


  G/BAm                            E+5/G#     C/G      D/F#
   E  E  Q  +E   E  E E    E E E E  E E E E    E E E E   E  E E E
|-----------------------|-----------7-----7-|--8-----8---2------2-|
|--0--1--1--(1)---------|--------5----5-----|----5----------3-----|
|--0--2--2--(2)-^2------|------5--------5---|------5----------2---|
|-----------------------|----7------6-------|--5---------4--------|
|--2--0--0--(0)-^0-/8-7-|--0----------------|---------------------|
|-----------------------|-------------------|---------------------|
|                          H        H          H         H
|
| Gtr II
|  E  E  H          Q      W                   H         Q.     E
|-----------------------|-12----------------|--8------------------|
|-----------------------|-13----------------|-10-------(10)-------|
|-----------------------|--9----------------|--9---------7--------|
|-----------------------|-------------------|---------------------|
|-10-12-12--------------|-12-------11-------|-10---------9--------|
|-----------------------|-------------------|---------------------|
                           H        H          H         Q.     E


  Fmaj7                 G/BAm             C       D         Fmaj7   Am
   E  E E E +E  E E E    E  E  H    E E   E E E E E E E E   E E E E E E +E  E
|--0------------0-----|-----------------|-------0-2-----2-|-0-----0-----------|
|-----1---1-(1)---1---|-----1--1--------|-----------3-----|---1-----0---------|
|-------2-----------2-|--0--2--2--------|-----0-------2---|-----2-----2-(2)---|
|--3------------------|-----------------|---2-----0-------|-3-----------------|
|---------------------|--2--0--0----0-2-|-3---------------|---------0----0--2-|
|---------------------|-----------------|-----------------|-------------------|
|  H.             Q                       H       H         H       Q    E  E
|
|  W                     E  E  H    Q     H       H         Q   E E Q    E  E
|--8------------------|-10-12-12--------|-----------------|-5---3-----------3-|
|-10------------------|-12-13-13--------|-5-------7-------|-------6-5-------3-|
|---------------------|-----------------|-5-------7-------|-5---7---5---------|
|-10------------------|-----------------|-----------------|-3---3---2-------5-|
|--8------------------|-12-12-12--------|-3-------5-------|-------------------|
|---------------------|-----------------|-----------------|-------------------|
                                                            Q   Q   H


  C        G          D
  E  E E E E  E E E   S S E H     E E
|----------3------3-|-3p2-2-2---------|
|-1------1----0-----|-----3-3---------|
|----0----------0---|-----2-2---------|
|------2------------|-0---0-0---------|
|-3-----------------|-------------0-2-|
|----------3--------|-----------------|
| H        H          E   E Q  H
|
| Q.     E Q.     E   E   E H     Q
|-3--------3--------|-7---5-5---------|
|-5--------3--------|-8---7-7---------|
|----------4--------|-7---7-7---------|
|-5-----------------|-----------------|
|-------------------|-----------------|
|-------------------|-----------------|


  C         D         Fmaj7   Am
   E E  E E E E E E   E E E E E E +E   E
|-----------2-----2-|-0-----0-------------|
|---------1---3-----|---1-----0-----------|
|-------0-------2---|-----2-----2-(2)-----|
|----2------0-------|-3-------------------|
|--3----------------|---------0----0---2--|
|-------------------|---------------------|
|  H        H         H       Q    E   E
|
|  Q    E E E E E E   Q   E E Q    E   E
|-------------------|-5---8-7-8-------10--|
|------10-8-8-7-5-3-|---------------------|
|--9----------------|-5---7-7-9-----------|
|-10---10-9-9-7-5-4-|-3-----5-7-----------|
|-------------------|---------------------|
|-------------------|---------------------|


                                        1st Verse
  C        D           Fmaj7             Am       E+5/G#     C/G      D/F#
   E E E E  E  E E E    E  E  H    Q      E E E E  E E E E    E E E E E  E E E
|------------------2-|--0--0--0-------||--------5--7-----7-|--8-----8-2------2-|
|--------1-------3---|--1--1--1-------||------5------5-----|----5--------3-----|
|------0-------2-----|--2--2--2-------||----5----------5---|------5--------2---|
|----2------0--------|--3--3--3-------||--7--------6-------|--5-------4--------|
|--3-----------------|----------------||-------------------|-------------------|
|--------------------|----------------||-------------------|-------------------|
|  H        H                             H        H          H       H
|
|  H        Q.     E    E  E  H    Q      H        H          H       Q.     E
|-12-------10--------|----------------||-------------------|-------------------|
|--------------------|--8-10-10-------||-------------------|-------------------|
|-12-------11--------|--9-10-10-------||-------------------|-------------------|
|-10-------12--------|-10-10-10-------||-------------------|-------------------|
|--------------------|----------------||-12-------11-------|-10-------9--------|
|--------------------|----------------||-------------------|-------------------|


  Fmaj7                 G/BAm                          E+5/G#
  E   E E E +E  E E E    E  E  Q  H            E E E E  E E E E
|-0-------------0-----|---------------------|--------5--7-----7-|
|-----1---1-(1)---1---|--0--1--1------------|------5------5-----|
|-------2-----------2-|--0--2--2------------|----5----------5---|
|-3-------------------|---------------------|--7--------6-------|
|---------------------|--2--0--0------------|-------------------|
|---------------------|---------------------|-------------------|
| H.              Q                            H        H
|
| H..               E    E  E  H      +E  E    W
|---------------------|---------------------|-12----------------|
|---------------------|---------------------|-13----------------|
|---------------------|---------------------|--9----------------|
|---------------------|---------------------|-------------------|
|-8-------------------|-10-12-12-----(12)---|-12-------11-------|
|---------------------|---------------------|-------------------|
                                               H        H


  C/G      D/F#         Fmaj7                G/BAm
   E E E E   E  E E E    E E E E +E  E E E    E  E  H    E E
|--8-----8---2------2-|--0-----------0-----|-----------------|
|----5----------3-----|----1---1-(1)---1---|--0--1--1--------|
|------5----------2---|------2-----------2-|--0--2--2--------|
|--5---------4--------|--3-----------------|-----------------|
|---------------------|--------------------|--2--0--0----0-2-|
|--
 Comments (click here to add a non-facebook comment)
thats commitment
-michaelaustin | 8/22/2005
Home | FAQs | Privacy | Terms | Contact
Top 100 Tab Sites