Give Kudos?
Are you sure you want to give kudos to aussief?

Add To Songbook?
Are you sure you want to add this song to your songbook?


3,420 bands | 16,454 songs
Search: Register FREE! | Login
Browse Songs:
Browse Bands:
Tool Panel
Discuss This Song

1 2 3 4 5



Lalo Schifrin - Mission: Impossible Theme (Tab)
Submitter: aussief (124) on 12/29/09 1 comment
Month Views: 27 | Total Views: 20,595
Help! We need a moderator for this artist. | Report This Song?
Song Tools

Comment

Songbook

Kudos

Show Chords

Print

    Music by Lalo Schifrin

This is in 5/4 time


E|-------------|------------|------------|------------|-6---------------|
B|-------------|------------|------------|------------|---8-------------|
G|-------------|------------|------------|------------|-----7-----------|
D|-------------|------------|------------|------------|-----------------|
A|--------1--3-|------------|-------1--3-|------------|----------1--3---|
E|-3--3--------|-3--3--1--2-|-3--3-------|-3--3--1--2-|-----------------|
                                                G   G   Bb  C   G   G   F   F#
E|-6-------------|-6------------|-------------|-3---3---1---3-|-3---3---1---2--|
B|---8-----------|---8----------|----1--------|-3---3---3---5-|-3---3---1---2--|
G|-----6---------|-----5--------|-3-----------|-4---4---3---5-|-4---4---2---3--|
D|---------------|--------------|-------------|-5---5---3---5-|-5---5---3---4--|
A|---------------|---------1--2-|-------------|-5---5---1---3-|-5---5---3---4--|
E|----------1--2-|--------------|--------1--2-|-3---3---1---3-|-3---3---1---2--|

   G
E|-3---------14-------|-------------13--------|-----------12--------|
B|-3---11-------------|-----11----------------|-----11--------------|
G|-4------12----------|---------12------------|--------12-----------|
D|-5------------------|-----------------------|---------------------|
A|-5-------------1--3-|-----------------------|----------------1--3-|
E|-3------------------|-3----------------1--2-|-3-------------------|


E|-11--10----------|--------------|-------------|--------------|--------------|
B|-----------------|--------------|-------------|--------------|--------------|
G|-----------------|--------------|-------------|--------------|--------------|
D|-----------------|-1------------|-1-----------|-1------------|--------------|
A|------------1--2-|---3----------|---3---------|---3----------|--------------|
E|---------3-------|------3--3--2-|-----2--3--1-|------1--3--0-|-0--1---------|

                                                                          F  G
E|-------2------|-------1-------|-------0-------|------------------|------1--3-|
B|--------------|---------------|---------------|-4/3--------------|------|--3-|
G|-3--0---------|-3--0----------|-3--0----------|------------------|------2--4-|
D|--------------|---------------|---------------|--------7---8--10-|-7----3--5-|
A|---------1--3-|---------------|----------1--3-|-------10--11--14-|-10---3--5-|
E|--------------|----------1--2-|---------------|-------10--11--13-|-10---1--3-|


An F. K. Tab,,, Enjoy!!!
 Comments (click here to add a non-facebook comment)
Very nice. KK.
-kraziekhat | 12/30/2009
Home | FAQs | Privacy | Terms | Contact
Top 100 Tab Sites