Give Kudos?
Are you sure you want to give kudos to driller?

Add To Songbook?
Are you sure you want to add this song to your songbook?


3,391 bands | 16,213 songs
Search: Register FREE! | Login
Browse Songs:
Browse Bands:
Tool Panel
Discuss This Song

1 2 3 4 5





Kid Rock - Pictures (Bass)
Submitter: driller (9) on 9/27/03
Month Views: 15 | Total Views: 1,962
Moderator: guntemar | Report This Song?
Song Tools

Comment

Songbook

Kudos

Show Chords

Print

intro:

G -------------------------------------------------------------------------
D -------------------------------------------------------------------------
A -------------------------------3~----3-3~----3/5~------5/3-3-------------
E --3~-----3-3~----3-------------------------------------------------3~----


Verse:
G ---------------------------------------------------------------------------------------------------
D ---------------------------------------------------------------------------------------------------
A-------------------------------3h-3-3-3h--3h---3-3-3h---5h--5-5-5h--3h-3-3-3h-----------------------
E ---3h---3-3-3h----3h---3-3-3h------------------------3------------------------3h-3-3-3h---3h-3-3-3h


Chorus:

G ----------------------------------------------------------------------------------------------
D ----------------------------------------------------------------------------------------------
A --------------------------------------------------------------------5h--5-5-5h---3h---3-3-3h--
E -3-2-------0h---0-0-0h---0h---0-0-0h---3h---3-3-3h----3h---3-3-3h--
   i put your picture
 Comments (click here to add a non-facebook comment)
Home | FAQs | Privacy | Terms | Contact
Top 100 Tab Sites