Give Kudos?
Are you sure you want to give kudos to EMRLDEYZS?

Add To Songbook?
Are you sure you want to add this song to your songbook?


3,412 bands | 16,398 songs
Search: Register FREE! | Login
Browse Songs:
Browse Bands:
Tool Panel
Discuss This Song

1 2 3 4 5





Kid Rock - Picture (Tab)
Submitter: EMRLDEYZS (118) on 3/23/04
Month Views: 6 | Total Views: 3,490
Moderator: guntemar | Report This Song?
Song Tools

Comment

Songbook

Kudos

Show Chords

Print

From Guitar World 


Intro
  
  G5
 4/4
  Gtr I
|-^0--3-------------|------3-------------|------3-------------|
|-^3--3---------3---|------3---------3---|------3---------3---|
|-^0------------0---|----------------0---|----------------0---|
|-^0----------------|--------------------|--------------------|
|-^x----------------|--------------------|--------------------|
|-^3----3-(3)-3---3-|--3-----3-(3)-3---3-|--3-----3-(3)-3---3-|
|
| Gtr II
|-^3----------------|-(3)----------------|-(3)----------------|
|-^3----------------|-(3)----------------|-(3)----------------|
|-^0----------------|-(0)----------------|-(0)----------------|
|-^0----------------|-(0)----------------|-(0)----------------|
|-^x----------------|-(x)----------------|-(x)----------------|
|-^3----------------|-(3)----------------|-(3)----------------|


                       1st Verse
                        G5
|------3-------------||-----3-------------|------3-----------|
|------3---------3---||-----3---------3---|------3---------3-|
|----------------0---||---------------0---|----------------0-|
|--------------------||-------------------|------------------|
|--------------------||-------------------|------------------|
|--3-----3-(3)-3---3-||--3----3-(3)-3---3-|--3-----3-(3)-3---|
|
|-(3)----------------||-^3----------------|-(3)--------------|
|-(3)----------------||-^3----------------|-(3)--------------|
|-(0)----------------||-^0----------------|-(0)--------------|
|-(0)----------------||-^0----------------|-(0)--------------|
|-(x)----------------||-^x----------------|-(x)--------------|
|-(3)----------------||-^3----------------|-(3)--------------|


  C
|-----0-------------|------0-------------|
|--1--1---------1---|------1---------0---|
|--0------------0---|----------------0---|
|--2----------------|--------------------|
|--3----3-(3)-3---3-|--3-----3-(3)-3---0-|
|-------------------|--------------------|
|
|-^0----------------|-(0)----------------|
|-^1----------------|-(1)----------------|
|-^0----------------|-(0)----------------|
|-^2----------------|-(2)----------------|
|-^3----------------|-(3)------------2p0-|
|-------------------|--------------------|


  D                            C         G5
|-----2---------2---|------2-----------|----3-------------|
|-----3---------3---|------3-------1---|----3---------3---|
|-------------------|--------------0---|--------------0---|
|--0----0-(0)-0---0-|--0-----0--2----0-|------------------|
|-------------------|-----------3------|------------------|
|-------------------|------------------|-3----3-(3)-3---3-|
|
|-^2----------------|-(2)------^0------|----3-------------|
|-^3----------------|-(3)------^1------|----3-------------|
|-^2----------------|-(2)------^0------|----0-------------|
|-^0----------------|-(0)------^2------|----0-------------|
|-------------------|----------^3------|----2-------------|
|-------------------|------------------|-3--3-------------|


  Gtr III
|---15-------------------------|-------------------|
|------15--------------12------|-------------------|
|---------0-14b15r(14)-12h==14-|-12----------------|
|------------------------------|-------------------|
|------------------------------|-------------------|
|------------------------------|-------------------|
|
| Gtr I
|-------3----------------------|-----3-------------|
|-------3---------------3------|-----3---------3---|
|-----------------------0------|---------------0---|
|------------------------------|-------------------|
|------------------------------|-------------------|
|-3-------3-(3)-----3--------3-|--3----3-(3)-3---3-|
|
| Gtr II
|-3----------------------------|--3--3---(3)-3-3-3-|
|-3----------------------------|--3--3---(3)-3-3-3-|
|-0--------------------------0-|--0--0---(0)-0-0-0-|
|-0---------------------0h2----|--0--0---(0)-0-0-0-|
|-2----------------------------|--2--2---(2)-2-2-2-|
|-3----------------------------|--3--3---(3)-3-3-3-|


                       C
|--------------------|--------------------|
|--------8S10S=8-----|--------------------|
|--------7S=9S=7-----|--------------------|
|--------------------|--------------------|
|--------------------|--------------------|
|--------------------|--------------------|
|
|----3---------------|----0---------------|
|----3-----------3---|-1--1---------1-----|
|----------------0---|-0------------0-----|
|--------------------|-2------------------|
|--------------------|-3----3-(3)-3---3---|
|-3----3---(3)-3-----|--------------------|
|
|----3-3---(3)-3-----|-0--0---(0)-----0---|
|----3-3---(3)-3---1-|-1--1---(1)-----1---|
|----0-0---(0)-0-----|-0--0---(0)-----0---|
|----0-0---(0)-0-----|-2--2---(2)-----2---|
|----2-2---(2)-2-----|-3--3---(3)-----3---|
|----3-3---(3)-3-3---|--------------------|


                       D                             C
|------------------|-----------------------|----------------|
|------------------|-----------------------|----------------|
|------------------|-----------------------|----------------|
|------------------|-----------------------|----------------|
|------------------|-----------------------|----------------|
|------------------|-----------------------|----------------|
|
|----0-------------|-----2-----------2-----|-----2---0--0---|
|----1---------1---|-----3-----------3-----|-----3---1--1---|
|--------------0---|-----2-----------------|---------0--0---|
|------------------|---0---0---(0)-0---0---|-0-----0-2--2---|
|-3----3-(3)-3---0-|-----------------------|---------3--3---|
|------------------|-----------------------|----------------|
|
|-0--0-0---------0-|-3---2-2h3p=2------2h3p|=2---2---0--0-0-|
|-1--1-1--1----1-0-|-3---3-3---------3-----|-----3---1--1-1-|
|-0--0-0--0----0-0-|-2---2---------2-2-----|---------0--0-0-|
|-2--2-2--2--------|---0-0---------0-------|---0-----2--2-2-|
|-3--3-3-----------|-----------------------|---------3--3-3-|
|------------------|-----------------------|----------------|


  G5
|--------------------|-------------------------||
|------------------3-|---3-----------3---------||
|------------------2-|---2b3r(2)p0-2-2b3r(2)p0-||
|--------------------|-------------------------||
|--------------------|-------------------------||
|--------------------|-------------------------||
|
|----3---(3)---------|-------------------------||
|----3---(3)-3-3---3-|--------3--3-3-----------||
|----0---(0)-0-0---0-|--------0--0-0-----------||
|----0---(0)-0-0---0-|--------0--0-0-----------||
|----x-------x-x---x-|--------x--x-x-----------||
|-3--3---(3)-3-3---3-|-3------3--3-3------2----||
|
|-3--3-3-----3-------|--------3------3---------||
|-3--3-3-----3-----0-|--------3------3---------||
|-0--0-0-----0-----0-|--------0------0---------||
|-0--0-0-----0-0h2---|--------0------0---------||
|-2--2-2-----2-------|--------2------2---------||
|-3--3-3--3--3-------|-3------3----3-3----2----||


 Chorus
  Em                           D    G
|-----------------|---------------|----------------|
|-----------------|---------------|----------------|
|-(0)-------------|---------------|-------------14-|
|-----------------|---------------|----------------|
|-----------------|---------------|----------------|
|-----------------|---------------|----------------|
|
| Gtr IV
|-----------------|---------------|-3--------------|
|-----------------|---------------|-3--------------|
|-----------------|---------------|-0--------------|
|------x-7s9--x-7s|=9---x-7s9--7--|-0--------------|
|------x-5s7--x-5s|=7---x-5s7--5--|-x--------------|
|-----------------|---------------|-3--------------|
|
| Gtrs I, II
|--------0-0----0-|-0-----0-0--2--|-3--3--3-3-3--3-|
|--------0-0----0-|-0-0---0-0--3--|-3--3--3-3-3--3-|
|--------0-0----0-|-0-0---0-0--2--|-0--0--0-0-0--0-|
|--2---x-0-2--x-0-|-2-2-x-0-2--0--|-0--0--0-0-0--0-|
|--2---x-0-2--x-0-|-2---x-0-2-----|-2--2--2-2-2--2-|
 Comments (click here to add a non-facebook comment)
Home | FAQs | Privacy | Terms | Contact
Top 100 Tab Sites