Give Kudos?
Are you sure you want to give kudos to bluesignal?

Add To Songbook?
Are you sure you want to add this song to your songbook?


3,383 bands | 16,157 songs
Search: Register FREE! | Login
Browse Songs:
Browse Bands:
Tool Panel
Discuss This Song

1 2 3 4 5





Kid Rock - Abortion (Tab)
Submitter: bluesignal (1) on 11/24/03
Month Views: 10 | Total Views: 2,566
Moderator: guntemar | Report This Song?
Song Tools

Comment

Songbook

Kudos

Show Chords

Print

				Abortion  -  Kid Rock



Riff 1

   E            F#           C#          C#

e|-0--0--0--0---2--2--2--2---4--4--4-----4--4--4--4-|-|

B|-0--0--0--0---2--2--2--2---4--4--4-----4--4--4--4-|-|

G|-1--1--1--1---3--3--3--3---6--6--6-----6--6--6--6-|*|

D|-2--2--2--2---4--4--4--4---6--6--6-----6--6--6--6-|*|

A|-2--2--2--2---4--4--4--4---4--4--4--0--4--4--4--4-|-|

E|-0--0--0--0---2--2--2--2--------------------------|-|



Riff 2

   E                        F#                  

e|------------------------|------------------------|

B|------------------------|------------------------|

G|------------------------|------------------------|

D|-2--2--2--2--2--2--2--2-|-4--4--4--4--4--4--4--4-|

A|-2--2--2--2--2--2--2--2-|-4--4--4--4--4--4--4--4-|

E|-0--0--0--0--0--0--0--0-|-2--2--2--2--2--2--2--2-|



   C#                       C#

e|------------------------|------------------------|

B|------------------------|------------------------|

G|-6--6--6--6--6--6--6--6-|-6--6--6--6--6--6--6--6-|

D|-6--6--6--6--6--6--6--6-|-6--6--6--6--6--6--6--6-|

A|-4--4--4--4--4--4--4--4-|-4--4--4--4--4--4--4--4-|

E|------------------------|------------------------|



Riff 1

	My veins are pop-pin from this love inside

	I just can’t get it out 

	This pipes and these needles are my only guide

	They got me on the wrong rout 

	What my life’s about 

	Living in the shadows of this man I never seen

	Dreaming like an only child

	I know you brothers and your sister and your mother too

	Man I wish you could see them to

	Man I wish that you could see them too

	Man I wish that you could see them too

	So can I come and see you some time

	Cause I been missing you

	I never heard you cry never seen you why 

	I feeling oh so young but still I must not get to you

	And if I do I wonder how just you will see me

	And defecate the things I've done

	I’m dieing on the shadows of the I man I never seen

	I’ll see you soon now where's my gun

	Oh yeah oh where's my gun

Riff 2

	Let me open your eyes 

	Let me see who you are

	I am you, you are me we are one and

	The Second Coming of Christ

	Has got him self in a jar

Riff 1	

	Yeah, yeah

Riff 2

	Let me open your eyes 

	Let me see who you are

	I am you, you are me we are one and

	The Second Coming of Christ

	Has got him self in a jar

Riff 1

	Hey yeah hey

	You got me sad and lonely

	When I'm being me

	You know you bring me so low

	I am so low

	And I would pray and then I cry

	And I would pray and then I cry

	And I would pray and then I cry

	And I would pray and then I cry
 Comments (click here to add a non-facebook comment)
Home | FAQs | Privacy | Terms | Contact
Top 100 Tab Sites