Give Kudos?
Are you sure you want to give kudos to aussief?

Add To Songbook?
Are you sure you want to add this song to your songbook?


3,375 bands | 16,049 songs
Search: Register FREE! | Login
Browse Songs:
Browse Bands:
Tool Panel
Discuss This Song

1 2 3 4 5





Kate Bush - Babooshka (Tab)
Submitter: aussief (171) on 9/6/17
Month Views: 49 | Total Views: 49
Help! We need a moderator for this artist. | Report This Song?
Song Tools

Comment

Songbook

Kudos

Show Chords

Print

Words and Music by Kate Bush

INTRO

    Abm Db/F Eb/G                Abm Db/F  Eb/G             Abm Db/F  Eb/G
E|--------|-------------------|--11---9--|-6--------------|-11---9--|-6--------------|
B|--4-----|--4----------11-14-|--12---9--|-8--------11-14-|-12---9--|-8--------11-14-|
G|--4---6-|--3---12-13--------|--13---10-|-8--12-13-------|-13---10-|-8--12-13-------|
D|--6---6-|--5----------------|--11---9--|-6--------------|-11---9--|-6--------------|
A|--6---8-|--3----------------|----------|----------------|---------|----------------|
E|------6-|-------------------|----------|----------------|---------|----------------|
                                                                     ( B A B O O S H
   Abm         Db/F          Eb/G
E|-11----------9----11-----|-6--------------|
B|-12--11------9--------12-|-8--------11-14-|
G|-13-----13---10----------|-8--12-13-------|
D|-11----------9-----------|-6--------------|
A|-------------------------|----------------|
E|-------------------------|----------------|
   K A )                    ( B A B O O S H K A)

Ebm
She wanted to test her husband.
Dbsus4     B              Eb/G
 She knew exactly what to do:
 Ebm/B      Db/Bb
 A pseudonym to fool him.
 Abm7         Db/F        Eb/G
 She couldn't have made a worse move.

 Ebm
 She sent him scented letters,
 Dbsus4    B                  Eb/G
 And he received them with a strange delight.
 Eb/B      Db/Bb
 Just like his wife
 Abm7        Db/F           Eb/G
 But how she was before the tears,
 Abm7        Db/F           Eb/G
 And how she was before the years flew by,
 Abm7        Db/F             Abm7  Gb/Bb
 And how she was when she was beautiful.
 B
 She signed the letter
  Ebm  Gb/Db  
 "All yours,
    Abm7       Eb/G       Abm7
 Babooshka, Babooshka, Babooshka-ya-ya!
 Ebm  Gb/Db
 All yours,
    Abm7       Eb/G       Abm             Db/F
 Babooshka, Babooshka, Babooshka-ya-ya!"

 (Repeat Intro)
 Ebm
 She wanted to take it further,
 Dbsus4   B                 Eb/G
 So she arranged a place to go,
Ebm/B    Db/Bb
 To see if he
  Abm7  Db/F    Eb/G
 Would fall for her incognito.

 Ebm
 And when he laid eyes on her,
 Dbsus4      B               Eb/G
 He got the feeling they had met before.
 Eb/B      Db/Bb
 Uncanny how she
 Abm7     Db/F             Eb/G
 Reminds him of his little lady,
  Abm7            Db/F       Eb/G
 Capacity to give him all he needs,
  Abm7          Db/F             Eb/G
 Just like his wife before she freezed on him,
  Abm7          Db/F             Abm7 Gb/Bb
 Just like his wife when she was beautiful.
  B
 He shouted out, "I'm
 Ebm  Gb/Db
 All yours,
    Abm7       Eb/G      Abm7
 Babooshka, Babooshka, Babooshka-ya-ya!
 Ebm  Gb/Db
 All yours,
    Abm7      Eb/G        Abm
 Babooshka, Babooshka, Babooshka-ya-ya!
 Ebm  Gb/Db
 All yours,
    Abm7       Eb/G       Abm7           Db/F
 Babooshka, Babooshka, Babooshka-ya-ya!"for ever 


 An F. K. Tab,,,,Enjoy!!!!!!
 
 Comments (click here to add a non-facebook comment)
Home | FAQs | Privacy | Terms | Contact
Top 100 Tab Sites