Give Kudos?
Are you sure you want to give kudos to aussief?

Add To Songbook?
Are you sure you want to add this song to your songbook?


3,033 bands | 13,507 songs
Search: Register FREE! | Login
Browse Songs:
Browse Bands:
Tool Panel
Discuss This Song

1 2 3 4 5





Jose Feliciano - Light My Fire (Tab)
Submitter: aussief (254) on 10/2/10 1 comment
Month Views: 989 | Total Views: 16,282
Help! We need a moderator for this artist. | Report This Song?
Song Tools

Comment

Songbook

Kudos

Show Chords

Print

Words and Music by The Doors


E|-0--x--0--0--0--x----|-----------------------------------|-0--x--0--0--0--x----|
B|-1--x--1--1--1--x--2-|-----------------------------------|-1--x--1--1--1--x--2-|
G|-0--x--0--0--0--x--2-|---2-4-p-2-------4-p-2---2-4-p-2---|-0--x--0--0--0--x--2-|
D|-------------------2-|-4---------4-p-2-------4---------4-|-------------------2-|
A|-0--x-----0--0--x----|-----------------------------------|-0--x-----0--0--x----|
E|-------------------2-|-----------------------------------|---------------------|


E|--4---2-------|-------------2--2--x--2-|--0--------|-------------2--2--x--2-|
B|--2---2--2----|-0--0--0--0--2--2--x----|-----3---2-|-0--0--0--0--2--2--x----|
G|--2---2--2--2-|-0--0--0--0--0--0--x--2-|--2--------|-0--0--0--0--0--0--x--2-|
D|---------2--2-|-0--0--0--0-----------0-|-----4---2-|-0--0--0--0-----------0-|
A|--------------|-------------0--0--x----|--4--2---0-|-------------0--0--x----|
E|--------------|-0--0--0--0-------------|-----------|-0--0--0--0-------------|



E|---0--x--------|-----------------------0-|-----------|
B|---------3---2-|--0--0--0--0-----------3-|-----------|
G|---2--x--------|--0--0--0--0-----2--x--2-|-----------|
D|---------4---2-|--0--0--0--0--4--4--x--0-|-----------|
A|---4--x--2---0-|-----------------------2-|-----------|
E|---------------|--3--3--3--3--2--2--x--0-|-----------|


  

    Am7                       F#m7
You know that it would be untrue
    Am7                      F#m7
You know that I would be a liar
Am7                 F#m7
If I was to say to you
Am7                         F#m7
Girl, we couldn't get much higher

G              A          D
Come on baby, light my fire
G              A          D    B
Come on baby, light my fire
G              D         E
Try to set the night on fire

    Am7                    F#m7
The time to hesitate is through
    Am7                    F#m7
No time to wallow in the mire
Am7                   F#m7
Try now we can only lose
         Am7                   F#m7
And our love become a funeral pyre

G              A         D
Come on baby, light my fire
G              A         D    B
Come on baby, light my fire
G              D         E
Try to set the night on fire, yeah

E|---------------|--------------|-------------|--------------|-----------------|
B|----1--3--3--3-|-3--1----2--2-|-----1--3--3-|-3--3--1----2-|-2---------------|
G|-2-------------|------2--2--2-|--2----------|---------2--2-|-2-----1-3-4-1---|
D|---------------|---------4--4-|-------------|------------4-|-4---2---------2-|
A|---------------|--------------|-------------|--------------|-----------------|
E|---------------|--------------|-------------|--------------|-----------------|


E|---------------------------------|---------|-0---0--0--0--0-|----4--4--2-|
B|-1-3-4-1---1-3-4-3-1---1-3-4-1---|-2--2--2-|-1---1--1--1--1-|-2--2--2--2-|
G|---------2-----------2---------2-|-2--2--2-|-3---3--3--2--2-|-2--2--2--2-|
D|---------------------------------|-4--4--4-|-2---2--2--2--2-|-4----------|
A|---------------------------------|---------|----------------|------------|
E|---------------------------------|---------|----------------|------------|



E|--------------2-|-2--2--0----|------------|-----2--2--2--0-|-----------------|
B|--0--0--0--0--2-|-2--3--2--3-|-2--0--0--0-|-0---1--1--3--2-|-3----2----0-----|
G|--4--4--4--4--0-|-0--2--2--4-|-2--4--4--4-|-4---0--0--2--2-|-4----2----4-----|
D|--5--5--5--5----|----0--3--4-|-2--5--5--5-|-5---------0--3-|-4----2----5-----|
A|--------------0-|-0----------|-0----------|-----0--0-----0-|------0----------|
E|----------------|------------|------------|----------------|-----------------|



E|----------------0-|
B|-0--0--3--3--3--0-|
G|-4--4--2--2--2--1-|
D|-5--5--0--0--0--2-|
A|----------------2-|
E|------------------|

    Am7                    F#m7
The time to hesitate is through
    Am7                    F#m7
No time to wallow in the mire
Am7                  F#m7
Try now we can only lose
        Am7                    F#m7
And our love become a funeral pyre

G              A         D
Come on baby, light my fire
G              A         D    B
Come on baby, light my fire
G               D        E
Try to set the night on fire, yeah

    Am7                     F#m7
You know that it would be untrue
    Am7                     F#m7
You know that I would be a liar
Am7                 F#m7
If I was to say to you
Am7                          F#m7
Girl, we couldn't get much higher

G              A        D
Come on baby, light my fire
G              A        D
Come on baby, light my fire
F               C        D
Try to set the night on fire
F               C        D
Try to set the night on fire


An F. K. Tab,,, Enjoy!!!!!!
 
 Comments (click here to add a non-facebook comment)
Always liked Feliciano's version better. Nice job. KK.
-kraziekhat | 10/3/2010
Home | FAQs | Privacy | Terms | Contact
Top 100 Tab Sites