Give Kudos?
Are you sure you want to give kudos to pjvill?

Add To Songbook?
Are you sure you want to add this song to your songbook?


3,033 bands | 13,503 songs
Search: Register FREE! | Login
Browse Songs:
Browse Bands:
Tool Panel
Discuss This Song

1 2 3 4 5





Johnny Winter - Rock And Roll Hoochie Koo (Tab)
Album: Johnny Winter And (1970)
Submitter: pjvill (9) on 11/24/05
Month Views: 155 | Total Views: 3,474
Moderator: jackshaw3 | Report This Song?
Song Tools

Comment

Songbook

Kudos

Show Chords

Print

-------------------------------------------------------------------

  JOHNNY WINTER - ROCK AND ROLL HOOCHIE KOO (Derringer) From JOHNNY
                  WINTER AND album. (Columbia 1971.)

-------------------------------------------------------------------

  Tabbed by:PJVillanueva







I couldn't stop movin' when it first took hold

It was a warm spring night at the old town hall

There was a band called The Jokers, they were layin' it down

Doncha know I'm never gonna lose that funky sound

Heh!


Rock 'n' Roll, Hoochie Koo

Lawdy mama light my fuse

Rock 'n' Roll, Hoochie Koo

Truck on out and spread the news


All right

I hope ya'll know what I'm talkin' about

The way she wiggled that thing, it really knocks me out

Gettin' high all the time, but if you're not there too

Come on a little closer, gonna do it to you

Yeah


Rock 'n' Roll, Hoochie Koo

Lawdy mama light my fuse

Rock 'n' Roll, Hoochie Koo

Truck on out and spread the news


Yeah!!


Solo


'squitas start buzzin' 'bout that time of year

She's goin' 'round back, said she'd meet me there

We was ballin' in the grass growin' behind the barn

Now my ears started ringin' like a fire alarm




Rock 'n' Roll, Hoochie Koo

Lawdy mama light my fuse

Rock 'n' Roll, Hoochie Koo

Truck on out and spread the news


Done got tired of payin' dues

Said goodbye to all my blues

Lawdy mama, light my fuse


                                 


  F5                G5                A5
e|-------- -------- -------- --------|-------- -------- -------- --------|
B|-----------------------------------|-----------------------------------|
G|-----------------------------------|2---2--------2------2-2-2----2-2---|
D|3---3----3---3----5---5----5---5---|2---2------2---2--5-2-2-2--5-2-2---|
A|3---3----5---3----5---5----7---5---|0---0----3--------0-0-0-0--0-0-0---|
E|1---1----1---1----3---3----3---3---|-----------------------------------|

e|-------- -------- -------- --------|-------- -------- -------- --------|
B|----6----6---6--------8----8---8---|----17R1513----------10-8----------|
G|----5----7---5--------7----9---7---|-------------14-----9-----\7-5-7-5-|
D|-----------------------------------|-----------------------------------|
A|-----------------------------------|-----------------------------------|
E|-----------------------------------|-----------------------------------|




  F5                C        G        A5
e|-------- -------- -------- --------|-------- -------- -------- --------|
B|-----------------------------------|-----------------------------------|
G|------------------5----------------|-----------------------------------|
D|3----3---5--------5--------5-------|7---x-x--x-x-x-x--x-x-x-x--x-------|
A|3----3---3---0-2--3--------5-------|7---x-x--x-x-x-x--x-x-x-x--x-------|
E|1----1---1-----------------3-------|5---x-x--x-x-x-x--x-x-x-x--x-5-3B4-|

e|-------- -------- -------- --------|-------- -------- -------- --------|
B|---------------------------8-------10----------------------------------|
G|---------5-7-5----5--------7-------|9----------------------------------|
D|7--------------7--5--------5-------|7----------------------------7-5B6-|
A|------------------3----------------|-----------------------------------|
E|-----------------------------------|-----------------------------------|




  E7 (Eb7/E7...)
e|-------- -------- -------- --------|-------- -------- -------- --------|
B|-----------------------------------|-----------------------------------|
G|-----------------------------------|-----------------------------------|
D|---11H12--11H12--11H12--11H12-11H12|---11H12--11H12--11H12--11H12-11H12|
A|-----------------------------------|-----------------------------------|
E|0--------0-----0------0------0-----|0--------0-----0------0------0-----|
                                                                       I
e|-------- -------- -------- --------|-------- -------- -------- --------|
B|-----------------------------------|-----------------------------------|
G|-----------------------------------|-----------------------------------|
D|----5H6----5H6----5H6----5H6--5H6P5|----5H6----5H6----5B-----5B----5---|
A|7--------7-----7------7------7-----|7--------7-----7------7------7-----|
E|-----------------------------------|-----------------------------------|




  A5                C5    D5     C5
e|-------- -------- -------- --------|-------- -------- -------- --------|
B|-----------------------------------|-----------------------------------|
G|------------------5---5-7----7-5---|-----------------------------------|
D|7---7------7--7---5---5-7----7-5---|----7----7-5---------------7-\-----|
A|7---7------7--7---3---3-5----5-3---|-------------7-6--5-3------------7-|
E|5---5------5--5--------------------|-----------------------------------|
  Couldn'
      stop moving 
              when it
                    first 
                        took hold                                   It was a 
e|-------- -------- -------- --------|-------- -------- -------- --------|
B|-----------------------------------|---8B10-B108---------------8B10----|
G|------------------5---5-7----7-5---|-------------9-8--7-5--------------|
D|7---7------7--7---5---5-7----7-5---|-----------------------------------|
A|7---7------7--7---3---3-5----5-3---|-----------------------------------|
E|5---5------5--5--------------------|-----------------------------------|





e|-------- -------- -------- --------|-------- -------- -------- --------|
B|-----------------------------------|-----------------------------------|
G|------------------5-----7------5---|-----------------------------------|
D/7---7------7------5-----7------5---|----7----7-5---------------7-\-----|
A/7---7------7------3-----5------3---|-------------7-6--5-3--------------|
E/5---5------5-----------------------|---------------------------------0-|
  wild spring 
           night 
             at the old town hall                             (There)was a
e|-------- -------- -------- --------|-------- -------- -------- --------|
B|-----------------------------------|-----------------------------------|
G|------------------5---5-7----7-5---|----6----6-4---------------6-~-----|
D|----7------7--7---5---5-7----7-5---|-------------7-6--5----------------|
A|----7------7--7---3---3-5----5-3---|--------------------7--------------|
E|----5------5--5--------------------|-----------------------------------|





e|-------- -------- -------- --------|-------- -------- -------- --------|
B|-----------------------------------|-----------------------------------|
G|------------------5-----7----7-5---|-----------------------------------|
D/7---7------7------5-----7----7-5---|----7----7-5---------------7-\-----|
A/7---7------7------3-----5----5-3---|-------------7-6--5-3------------7-|
E/5---5------5-----------------------|-----------------------------------|
  band 
    called 
       The Jokers 
             they were 
                    laying it down                                  Don't you 
e|-------- -------- -------- --------|-------- -------- -------- --------|
B|-----------------------------------|---8B10-B108---------------8B10----|
G|------------------5---5-7----7-5---|-------------9-8--7-5--------------|
D|7---7------7--7---5---5-7----7-5---|-----------------------------------|
A|7---7------7--7---3---3-5----5-3---|-----------------------------------|
E|5---5------5--5--------------------|-----------------------------------|






e|-------- -------- -------- --------|-------- -------- -------- --------|
B|-----------------------------------|-----------------------------------|
G|------------------5-----7------5---|-----------------------------------|
D/7---7------7------5-----7------5---|----7----7-5---------------7-\-----|
A/7---7------7--
 Comments (click here to add a non-facebook comment)
Home | FAQs | Privacy | Terms | Contact
Top 100 Tab Sites