Give Kudos?
Are you sure you want to give kudos to aussief?

Add To Songbook?
Are you sure you want to add this song to your songbook?


3,430 bands | 16,496 songs
Search: Register FREE! | Login
Browse Songs:
Browse Bands:
Tool Panel
Discuss This Song

1 2 3 4 5



John Lee Hooker - One Bourbon, One Scotch, One Beer (Tab)
Submitter: aussief (7) on 7/1/18
Month Views: 7 | Total Views: 748
Help! We need a moderator for this artist. | Report This Song?
Song Tools

Comment

Songbook

Kudos

Show Chords

Print

Words and Music by  John Lee Hooker and Rudy Toombs

         G7
E|-5-||-s5-------------|-----------------------|-----------10-b(11)r-10-8----|
B|-3-||-s3-------------|-----------------------|---------------------------8-|
G|---||--------5-b-(7)-|s5-r3-0--3-------------|-0--0--3---------------------|
D|---||----------------|---------------0--3--0-|-----------------------------|
A|---||----------------|-----------------------|-----------------------------|
E|---||----------------|-----------------------|-----------------------------|

                          C7
E|-------8--------------|----------10-b(11)r-10-8-|-------9-----8--5----|
B|--8-------------------|-------------------------|-8--8--------------8-|
G|--------------6-s-5--3|-5--3--------------------|---------------------|
D|----------------------|-------------------------|---------------------|
A|----------------------|-------------------------|---------------------|
E|----------------------|-------------------------|---------------------|

   G7                                      D7                  C7
E|-5-------------------|--------------5--|-5----------5--3-s-|-5-----------------|
B|------------5-s-3----|-----------------|-3----------5--3-s-|-5-----------------|
G|-----3------5-s-3--0-|-0---3-----------|-------------------|----------5-s-3--5-|
D|---------------------|-----------------|-------------------|-------------------|
A|---------------------|-----------------|-------------------|-------------------|
E|---------------------|-----------------|-------------------|-------------------|

   G7                        D7
E|-------------------------|---------------5--|
B|--------------------5--3-|---------------3--|
G|-3--0--0---------0--5--3-|-0----------------|
D|-------------------------|------------------|
A|-------------------------|------------------|
E|-------------------------|------------------|


 G7
One bourbon, one scotch, and one beer
      C7                          G7
 One bourbon, one scotch, and one beer
                            C7
 Hey mister bartender come here
    G7                              C7
 I want another drink and I want it now
     G7                              C7
 My baby she gone, she been gone two night
    G7                                    C7
 I ain't seen my baby since night before last
      G7           C7             G7
 One bourbon, one scotch, and one beer

 (Spoken)
 And then I sit there, gettin' high, mellow
 Knocked out, feeling good and by the time
 I looked on the wall at the old clock on the wall
 By that time, it was ten thirty daddy

 I looked down the bar, at the bartender
 He said, "Now what do you want Johnny?"
      G7           C7              G7
 One bourbon, one scotch, and one beer

          G7                                C7
 Well my baby she gone, she been gone two night
    G7                                    C7
 I ain't seen my baby since night before last
    G7                                  C7
 I wanna get drunk till I'm off of my mind
       G7           C7             G7
 One bourbon, one scotch, and one beer

 (Spoken)
 And I sat there, gettin' high, stoned
 Knocked out, and by the time
 I looked on the wall, at the old clock again
 And by that time, it was a quarter to two

 Last call for alcohol, I said,
 Hey mister bartender, what do you want? "
      G7           C7              G7
 One bourbon, one scotch, and one beer
      G7           C7              G7
 One bourbon, one scotch, and one beer
      G7           C7              G7
 One bourbon, one scotch, and one beer

An F. K. Tab,,,,, Enjoy!!!!!!




 Comments (click here to add a non-facebook comment)
Home | FAQs | Privacy | Terms | Contact
Top 100 Tab Sites