Give Kudos?
Are you sure you want to give kudos to alblues?

Add To Songbook?
Are you sure you want to add this song to your songbook?


3,424 bands | 16,463 songs
Search: Register FREE! | Login
Browse Songs:
Browse Bands:
Tool Panel
Discuss This Song

1 2 3 4 5



John Lee Hooker - Im So Excited (Tab)
Submitter: alblues (12) on 3/6/05 1 comment
Month Views: 24 | Total Views: 3,596
Help! We need a moderator for this artist. | Report This Song?
Song Tools

Comment

Songbook

Kudos

Show Chords

Print

           JOHN LEE HOOKER   IM SO EXCITED

             TABBER AL FISHER OR ALBLUES

               DAYTONA BEACH FLORIDA USA

                        BLUES 


INTRO                       2X
-------------------------------------|
--7B-5--7----------------------------| 
-------------4B--0---4---------------| 
------------------------7------------|
-------------------------------------|
-------------------------------------|

----------------------------------------|
--/-9--7---5----------------------------| 
-------------6------------4-------------|
-----------------4--H--7-----4-4-------|
----------------------------------------|
----------------------------------------|

------------------------------------------|
------------------------------------------|
------------------------------------------|
------------------------------------------|
----------------2-2---4-4-------4H-6P-4---|
--2-2----5--5---------------2-2-----------|


F# RIFF                B RIFF
---------------------|-----------------------|
---------------------|-----------------------|
---------------------|-----------------------|
---------------------|---------4---6--4------|
----------4--6--4----|--2----5---------------|
-2----5--------------|-----------------------|

C#RIFF                  B RIFF                 
----------------------|--------------------------|
----------------------|--------------------------|
----------------------|--------------------------|
-----------6--8--6----|---------4--6--4----------|
-4-4---7--------------|--2---5-------------------|
----------------------|--------------------------|

           RIFF Q
---------|------------------------------------|
---------|------------------------------------|
---------|------------------------------------|
---------|---2-H-P-4--2-HP-4---2HP--4---------| 
--2---5--|------------------------------------|
---------|------------------------------------|

                               END OF  RIFF Q
--------------------------------------------|
--------------------------------------------|
--------------------------------------------|
------------------------2-3-4---------------|
-4--3--2--0-------2-3-4---------------------| 
-------------2------------------2-----------| 

RIFF V
 -----------------------------
----------------------------
------------------------------
---------------------4---------
------------------------4-----
-2--2---5--5---7--7-------------- 

 SOLO       4X          
----||--------||-------------------
-11-||--10/11-||---11---9--11------- 
-11-||--10/11-||---11---9--11----- 
----||--------||-----------------
----||--------||---------------
----||--------||----------------

-----------\-------------------|
------------|------------------|
-4B--4-0----|--4b-4--0---------| 
---------4--|-----------4------| 
------------|------------------|
------------|------------------|
                 2x
--------------------------|
--------------------------|
--------------------------|
--------------------------|
---------4---6--4---------| 
-2---5--------------------|

  8x      18x
------|------------------------|
-11---|--9---------------------|
-11---|--9---------------------|
------|------------------------|
------|------------------------| 
------|------------------------|

 INTRO  

F# RIFF

I GET SO EXCITED BABE SEE WALKIN
DOWN THE STREET

B RIFF

I GET SO EXCITED DARLIN  SEE YOU
WALKIN DOWN THE STREET

C#RIFF                  B FIFF' 

BABY I GET SO EXCITED DARLIN

I CANT HELP MY SELF ((RIFF Q))

F#
MY MAMA SHE TOLD ME TO LEAVE YOU ALONE

B
MY MAMA SHE TOLD ME TO LEAVE YOU ALONE

C#                          B
BUT MY MAMA DIDNT KNOW WAS YOU WERE PUT DOWN 
SO LONG ((( FIFF Q))

 
----------------------------|
----------------------------| 
----------------------------|
----------------------------|
---------4------------------|
-2-----5--------------------|
             NIGHT TIME IS THE RIGHT TIME

------
------
------
------
--4---
--2---
     TO BE WITH THE ONE YOU LOVE

-------------|
-------------|
-------------|
-------------| 
-2--3-4------|
---------2---|
                YOU KNOW WHEN NIGHT COMES
BABY DOLL GOD KNOWS//// YOU SUPPORT THE WAY

B                                             F#  
I GET SO EXCITED DARLIN  WHEN YOUR NOT AROUND

C#                    B                    
I GET SO EXCITED BABY DONT KNOW WHAT TO DO

RIFF V

SOLO

F#
IF I CANT BE WITH BABY 
I DONT WANT  NOBODY ELSE

B
IF I CANT BE WITH YOU BABY
I DONT WANT NOBODY ELSE

F#
      C#                B
      I GET SO EXCITED BABY

WALKIN ON DOWN THE STREET

4X  END
--------
--11---- 
--11---- 
--------
--------  
--------

  NOTES JOHN LEE USES A  G BANJO STRING 
  AND ALSO TUNES HIS GUITAR OUT OF 

  STANDERD TUNNINGS
         



    




 



-




















 
 Comments (click here to add a non-facebook comment)
Great Job!!!!!
-aussief | 6/6/2017
Home | FAQs | Privacy | Terms | Contact
Top 100 Tab Sites