Give Kudos?
Are you sure you want to give kudos to alblues?

Add To Songbook?
Are you sure you want to add this song to your songbook?


3,434 bands | 16,528 songs
Search: Register FREE! | Login
Browse Songs:
Browse Bands:
Tool Panel
Discuss This Song

1 2 3 4 5



John Lee Hooker - Dimples (Tab)
Submitter: alblues (3) on 3/6/05 2 comments
Month Views: 5 | Total Views: 10,747
Help! We need a moderator for this artist. | Report This Song?
Song Tools

Comment

Songbook

Kudos

Show Chords

Print

            DIMPLES       JOHN LEE HOOKER

             TABBER AL FISHER OR ALBLUES

               DAYTONA BEACH FLORIDA USA

                        BLUES
                   


MY VERSION

KEY F#

INTRO
F#                  F#        2X
-------------------------------------|                
--0----------------------------------|     
--4B-R-4--2--------------------------|
-------------4-----------------------|
-------------------------------------|
----------------2--------------------|
                   B
----------------------------------|
-0--------------------------------|
-4B-R-4--2------------------------| 
------------4---------------------|
----------------------------------|
----------------2-----------------| 

--------------------------------------|
--------------------------------------|
-----2-H--4-P-2-H-4-P-2---4B4B4B------| 
-/4---------------------4-------------|
--------------------------------------|
--------------------------------------|


---------------------------------------|
---------------------------------------|
----2--4--2----------------------------|
--4----------4--2--4-------------------|
---------------------------------------|
-----------------------2---------------|
                        I LOVE THE WAY YOU WALK

RHY 1 F#               RHY 2  B
--------------|-----------------------------| 
--------------|-----------------------------|     
--------------|------------2-2--2-----------|
------2-2-2---|----------1------------------|
---1--1-------|--------2--------------------|
-2------------|-----------------------------|

OR TRY THIS BEBOP PATTERN

RHY1 
------------------------------------| 
------------------------------------| 
------------------------------------| 
------------------------------------| 
----------4--7--4--7--4-------------| 
-2---4/5----------------------------| 

RHY2

-----------------------------------------|
-----------------------------------------|
-----------------------------------------|
----------4--7--4--7--4------------------|
-2----4/5--------------------------------|
-----------------------------------------|

RHY3     OR TRY THIS
----------------------------------| 
----------------------------------|
----------------------------------|
--4--2------2-H--4--2/4-----------| 
---------4------------------------| 
----------------------------------|

RHY 3  THIS  RIFF            ENDING USE ON RHY 3
-----------------------|---------------------|
-----------------------|----4----------2HP3--| 
-----------------------|----4--2-------------|
-4--2-----------2---4--|--4-------4-2-4------|
--------4-----4--------|---------------------|
------------5----------|----------------2----|  

FILL 1   FILL 2    FILL 3
-2---|------------|--------------|
-2---|------------|--------------|
-----|------------|--2-0-2-0-2---|
-----|------------|--------------|
-----|------------|--------------|
-----|-----2------|--------------|
RIFF- M
----------------------------------|
----------------------------------|
----------------------------------|
-----------------2----4-----------|
-9--7---4--2---4------------------|
----------------------------------|




RIFF Q         TRILL
------------------------| 
------------------------| 
---------------2-3-3-3--| 
-------2--4-------------|  
----4-------------------| 
-5------------2---------|


RIFF Z

trill

--------------| 
--------------| 
---2-3-3-3----|  
--------------| 
--------------| 
--2-----------| 

 SOLO

trill            3x
----------|----------|
----------|-4--------|  
-2-3-3-3--|-4--2-----|   
----------|----------|
----------|----------| 
----------|--------2-|
 
 
      3x              3x            1x        
---------|---------------|--------------|
-11--11/-|---14--14/-----|--11--11/-----| 
-11--11/-|---14--14/-----|--11--11/-----|  
---------|---------------|--------------|
---------|---------------|--------------| 
---------|---------------|--------------| 
              8x*****************                   
-----------||-------------------------||
-6-6---4-4-||-----------4-------------|
-6-6---4-4-||--2-3-3-3--4--2----------| 
-----------||----------------4--------|
-----------||-------------------------|
-----------||-------------------------|


 INTRO

RHY 1 
I LOVE THE WAY YOU WALK 2x

RHY 2
IM CRAZY ABOUT YOUR WALK
RHY 2
I'M LOVE THE WAY YOU WALK


RHY 3                        RHY 3 ENDING

YOU MY BABE I GOT MY EYES ON YOU
 

RHY 1 /W FILL 1 

I LIKE THE WAY YOU SWITCH 2X

RHY 2 /W FILL 1

I LIKE THE WAY YOU SWITCH 2X

RIFF Q
YOU MY BABY IGOT MY EYES ON YOU

RHY1 /W FILL 2
YOU GOT DIMPLES IN YOUR JAW  

RHY 1 W/ FILL 1
YOU GOT DIMPLES IN YOUR JAW

RHY 2 W/ FILL 3
YOU GOT DIMPLES IN YOUR JAW

RHY 2
YOU GOT DIMPLES IN YOUR JAW

RIFF M
YOU MY BABY  I GOT MY EYES ON YOU 


 SOLO  JAM IF YOU LIKE IN A F#  (F# B C# )
 
F#//// B// F// C#/ B/



RHY 1/W FILL 2
  WELL I SEE YOU EVERY DAY 2X

RHY1  W/ FILL2
 IN YOUR NEIGHBOR HOOD

RHY 2 W/ FILL 2

WELL I SEE YOU EVERY DAY

ENDING TAG
--------------------------------|
--------------------------------|
--------------------------------|
--------------------------2-4---|
-----------------------4------4-| 
--------------------------------|
WELL I SEE YOU EVERY DAY

I GOT MY EYES ON YOU ( OH YES I DO SWEET THANG)

-------------------------2---|
-------------------------2---| 
-----------------------------|
-----------------------------|
--------2-3--4--2--0---------|
--2---5--------------2-------|
 ENDING

NOTES THIS IS A STARTING POINT 

YOU CAN PLAY WITH IT AND JAM
 WHAT EVER YOU LIKE.
 THE YARD BIRDS DID A VERSION
OF THIS SONG ALSO  
   















 
 Comments (click here to add a non-facebook comment)
I haven't heard this one yet. Pretty funny!
-logansams | 5/4/2005
Good one,,,great job!!!!!!
-aussief | 11/14/2012
Home | FAQs | Privacy | Terms | Contact
Top 100 Tab Sites