Give Kudos?
Are you sure you want to give kudos to aussief?

Add To Songbook?
Are you sure you want to add this song to your songbook?


3,420 bands | 16,455 songs
Search: Register FREE! | Login
Browse Songs:
Browse Bands:
Tool Panel
Discuss This Song

1 2 3 4 5



John Lee Hooker - Boom Boom (Tab)
Submitter: aussief (119) on 4/30/19
Month Views: 35 | Total Views: 387
Help! We need a moderator for this artist. | Report This Song?
Song Tools

Comment

Songbook

Kudos

Show Chords

Print

Words and Music by John Lee Hooker
  Intro and Fills.

      Riff 1                  E7 A A E7                       E7 A A E7
E|------------------------|------------|-------------------|-----------|
B|------3-----------------|------------|-------------------|-----------|
G|-s-4-----4-s-2-p-0------|------------|----0-3-s-2-0------|-----------|
D|--------------------2-0-|-2----------|-2-------------2-0-|-2---------|
A|------------------------|------------|-------------------|-----------|
E|------------------------|------------|-------------------|-----------|

      Riff 2                 A7 D D A7                         E7 A A E7
E|-----------------------|-------------|-------------------|-----------|
B|------3----------------|-------------|-------------------|-----------|
G|-s-4-----4-s-2-p-0-----|-------------|----0-3-s-2-0------|-----------|
D|-------------------2-0-|-------------|-2-------------2-0-|-2---------|
A|-----------------------|-0-----------|-------------------|-----------|
E|-----------------------|-------------|-------------------|-----------|

    Riff 3                    B7 E E B7                        E7 A A E7
E|-----------------------|-------------|------------------|------------|
B|------3----------------|-------------|------------------|------------|
G|-s-4-----4-s-2-p-0--2-0|-2-----------|---------0-----0--|------------|
D|-----------------------|-------------|----0-2-----2-----|-2----------|
A|-----------------------|-------------|-2----------------|------------|
E|-----------------------|-------------|------------------|------------|


NC         E7        (Riff1)
Boom boom boom boom
                               ( Riff 1)
I'm gonna shoot you right down
                 A7    (Riff 2 )
Right offa your feet
                   E7   ( Riff 1)
Take you home with me
                B7    (Riff 3)
Put you in my house
                E7    (Riff 1)
Boom boom boom boom
E7
A-haw haw haw
E7
Mmm hmm hmm
E7
Mmm hmm hmm hmm

 ( Verse 2 same as above)

I love to see you strut
Up and down the floor
When you talking to me
That baby talk
I like it like that
Whoa, yeah
Talk that talk, walk that walk

INSRTUMENTAL BREAK
    E7                                    A7                E7
E|----0--0-|----0--0-|---0--0-|----0--0-|----0----|-------|----0-----|-----3--0----|
B|-3-------|-3-------|-3------|-3-------|-4----b4-|-s5----|-3----s5--|-------------|
G|---------|---------|--------|---------|---------|-------|----------|-------------|
D|---------|---------|--------|---------|---------|-------|----------|-------------|
A|---------|---------|--------|---------|---------|-------|----------|-------------|
E|---------|---------|--------|---------|---------|-------|----------|-------------|
Spoken:  Talk that talk, walk that walk

   B7        A7       E7         B7     
E|----0----|--3--0--|----0----|-----3--0-|-------------|---------3--|--------0---3-|
B|-3----s5-|--------|-3----s5-|-0-3-3----|-----3-----3-|------3-----|----3---------|
G|---------|--------|---------|----------|-s4-----4----|-s-4--------|-s4-----------| 
D|---------|--------|---------|----------|-------------|------------|--------------|
A|---------|--------|---------|----------|-------------|------------|--------------|
E|---------|--------|---------|----------|-------------|------------|--------------|


E|-5--3-0-----------|---------------|------------|-------------|----------------------|
B|---------3--------|---------------|------------|-------------|----------------------|
G|------------4-3-2-|-(2)-0-----0---|-3-s2-0-----|-------------|----0--2-h4-s2-p0-2-0-|
D|------------------|--------2-----2|--------2-0-|-2--0----0-2-|-2--------------------|
A|------------------|---------------|------------|-------2-----|----------------------|
E|------------------|---------------|------------|-------------|----------------------|


E|------------|--------------|---------------|----------|------|---------------------|
B|------------|--------------|---------------|----------|------|-----3---------------|
G|-2-0----0-2-|----0-2--0----|-0-----2---0---|----------|------|-s4-----4-2-0--------|
D|-----2------|-2----------2-|----2--------2-|-----0--1-|-2----|---------------2-0-2-|
A|------------|--------------|---------------|-2--------|------|---------------------|
E|------------|--------------|---------------|----------|------|---------------------|

(Additional lyrics)

When she walk that walk
And talk that talk
And whisper in my ear
Tell me that you love me
I love that talk
When you talk like that
You knocks me out
Right offa my feet
Woah ho ho ho
Oh talk, that walk that walk
Aw yeah

An F. K. Tab,,,,Enjoy!!!!!!
 Comments (click here to add a non-facebook comment)
Home | FAQs | Privacy | Terms | Contact
Top 100 Tab Sites