Give Kudos?
Are you sure you want to give kudos to Rondo Fondu?

Add To Songbook?
Are you sure you want to add this song to your songbook?


3,425 bands | 16,469 songs
Search: Register FREE! | Login
Browse Songs:
Browse Bands:
Tool Panel
Discuss This Song

1 2 3 4 5



John Fogerty - Centerfield Bassline (Bass)
Submitter: Rondo Fondu (6) on 4/21/04
Month Views: 107 | Total Views: 13,747
Help! We need a moderator for this artist. | Report This Song?
Song Tools

Comment

Songbook

Kudos

Show Chords

Print

Centerfield (Bassline)
by John Fogerty



Gtr I (E A D G) - Bass

 Intro
  Q=143
 4/4
  Gtr I
  Wx7
|--------|
|--------|
|--------|
|--------|


  (G)
  E E E E H      Wx2
|--------------|--------|
|---2-4--------|--------|
|--------------|--------|
|--------------|--------|


  C               G/B               D5/A              D5
  Q.   E +H       Q.   E +Q   E E   E E E E E E E E   E E E E E E E E
|---------------|-----------------|-----------------|-----------------|
|---------------|-----------------|-----------------|-----------------|
|-3----3-(3)----|-2----2-(2)------|-----------------|-5-5-5-5-5-5-5---|
|---------------|-------------3-2-|-5---5---5---5-5-|---------------0-|


  G5
  E E E E E E E E   E E E E E E E E
|-----------------|-----------------|
|-----------------|-----------------|
|-----------------|-----------------|
|-3-3---3---3---3-|-3-3---3---3---3-|


  E E E E E  E  E   E    +E   E  E  E  E  E  Q
|-----------------/16-|-(16)-16s14-12------------|
|---------------------|---------------14-12------|
|--------------10-----|---------------------14\--|
|-3-3---3-3S10--------|--------------------------|


   Verses
    $
                                        C5                G5
    E E E E E E E E   E E E E E E E E   E E E E E E E E   E E E E E E E E
||------------------|-----------------|-----------------|------------------|
||o-----------------|-----------------|-----------------|------------------|
||o-----------------|-----------------|-3-3---3---3-3---|------------------|
||--3-3---3---3---3-|-3-3---3---3-3-5-|---------------3-|-3-3---3---3---3--|


                      E5                D5
  E E E E E E a E E   E E E E E E E E   E E E E E E E E   a E E E E E E E E
|-------------------|-----------------|-----------------|---------------------|
|-------------------|-----------5-5---|-----------------|-7s9-9-7-5-----------|
|-----------------5-|-7-7-7-5-7-----7-|-5-5---5---5---5-|-----------7-5-------|
|-3-3---3---3-5s7---|-----------------|-----------------|---------------7-5---|


  G5                                  C5                G5
  E E E E E E E E   E E E E E E E E   E E E E E E E E   E E E E E E E  e
|-----------------|-----------------|-----------------|-------------------|
|-----------------|-----------------|---------------5-|-------------------|
|-----------------|-----------------|-3-3---3---3-3---|-------------------|
|-3-3---3---3---3-|-3-3---3---3-3-5-|-----------------|-3-3---3---3-3-(5)-|


  C5                D5                G5
  E E E E E E E E   E E E E E E E E   E E E E E E E E   E E E E E E Q
|-----------------|-----------------|-----------------|---4------------|
|-----------------|-----------------|-----------------|-5---7-5--------|
|-3-3---3---3-3-3S|=5-5---5---5-----|-----------------|---------7-5----|
|-----------------|-------------7-5-|-3-3---3---3-3-3-|-------------7--|


 Chorus
                                      C5                G5
  E E E E E E E E   E E E E E E Q     E E E E E E E E   E E E E E E E E
|-----------------|-----------------|-----------------|-----------------|
|-----------------|-----------------|-----------------|-----------------|
|-----------------|-----------------|-3---3---0-3-3-0-|-----------------|
|-3---3-3-0-3-3-0-|-3---3-3-0-3-5\--|-----------------|-3---3---0-3-3-0-|


                                      C               G/B
  E E E E E E E E   E E E E E E Q     Q.   E +H       Q.   E +Q   E E
|-----------------|-----------------|---------------|-----------------|
|-----------------|-----------------|---------------|-----------------|
|-----------------|-----------------|-3----3-(3)----|-2----2-(2)------|
|-3-3-3-3-0-3-3-0-|-3-3-3-3-0-3-5\--|---------------|-------------3-2-|


         To Coda
  D5/A              D5                G5
  E E E E E E E E   E E E E E E E E   E E E E E E E E   E E E E E E E E
|-----------------|-----------------|-----------------|-----------------|
|-----------------|-----------------|-----------------|-----------------|
|-----------------|-5-5-5-5-5-5-5---|-----------------|-----------------|
|-5-5-5-5-5-5-5-5-|---------------0-|-3-3---3---3---3-|-3-3---3---3---3-|


  1.
  E E E E E  E  E   E    +E   E  E  E  E  E  Q
|-----------------/16-|-(16)-16s14-12-------------||
|---------------------|---------------14-12------o||
|--------------10-----|---------------------14\--o||
|-3-3---3-3S10--------|---------------------------||


  2.
  E E E E E E E E   E E E E E E Q
|-----------------|----------------|
|-----------------|----------------|
|-----------------|----------------|
|-3-3---3---3---3-|-3-3---3---3-3--|


 Interlude
  C5                G5                C5                G5
  E E E E E E E E   E E E E E E E E   E E E E E E E E   E E E E E E E E
|-----------------|-----------------|-----------------|-----------------|
|-----------------|-----------------|-----------------|-----------------|
|-3-3-3-3S5-5-5---|-----------------|-3-3-3-3S5-5-5---|-----------------|
|---------------0-|-3-3---3---3-3-3-|---------------0-|-3-3---3---3-3-5-|


  C5                G5                C               G/B
  E E E E E E E E   E E E E E E Q     Q.   E +H       Q.   E +Q   E E
|-----------------|-----------------|---------------|-----------------|
|-----------------|-------------9\--|---------------|-----------------|
|-3-3-3-3S5-5-5---|-----------------|-3----3-(3)----|-2----2-(2)------|
|---------------0-|-3-3---3---3-----|---------------|-------------3-2-|


  D5/A              D5                G5
  E E E E E E E E   E E E E E E E E   E E E E E E E E   E E E E E E E E
|-----------------|-----------------|-----------------|-----------------|
|-----------------|-----------------|-----------------|-----------------|
|-----------------|-5-5-5-5-5-5-5---|-----------------|-----------------|
|-5-5-5-5-5-5-5-7-|---------------0-|-3-3---3---3---3-|-3-3---3---3---3-|


                                D.S. al Coda
  E E E E E  E  E   E    +E   E  E  E  E  E  Q
|-----------------/16-|-(16)-16s14-12------------|
|---------------------|---------------14-12------|
|--------------10-----|---------------------14\--|
|-3-3---3-3S10--------|--------------------------|


  &
  D5                G5
  E E E E E E E E   E E E E E E E E
|-----------------|-----------------|
|-----------------|-----------------|
|-5-5-5-5-5-5-----|-----------------|
|-------------7-0-|-3---3-3-0-3-3-0-|


                     C5                G5
  E E E E E E E  E   E E E E E E E E   E E E E E E E E   E E E E E E E E
|------------------|-----------------|-----------------|-----------------|
|------------------|-----------------|-----------------|-----------------|
|------------------|-3---3-3-0-3-3-0-|-----------------|-----------------|
|-3---3-3-0-3-5\---|-----------------|-3---3-3-0-3-3-0-|-3---3---0-3-3-0-|


                     C               G/B               D5/A
  E E E E E E E  E   Q.   E +H       Q.   E +Q   E E   E E E E E E E E
|------------------|---------------|-----------------|-----------------|
|------------------|---------------|-----------------|-----------------|
|------------------|-3----3-(3)----|-2----2-(2)------|-----------------|
|-3---3-3-0-3-5\---|---------------|-------------3-3-|-5-5-5-5-5-5-5-5-|


                                                      Outro
  D5               G5                                  C
  E E E E Q  E E   E E E E E E E E   E E E E E E Q     Q.   E +H
|----------------|-----------------|-----------------|---------------|
|----------------|-----------------|-------------9\--|---------------|
|-5-5-5-5-5------|-----------------|-----------------|-3----3-(3)----|
|------------0-0-|-3-3---3---3---3-|-3-3-3-3-3-------|---------------|


  G/B               D5/A              D5              G
                              
 Comments (click here to add a non-facebook comment)
Home | FAQs | Privacy | Terms | Contact
Top 100 Tab Sites