Give Kudos?
Are you sure you want to give kudos to WildCard76?

Add To Songbook?
Are you sure you want to add this song to your songbook?


3,380 bands | 16,081 songs
Search: Register FREE! | Login
Browse Songs:
Browse Bands:
Tool Panel
Discuss This Song

1 2 3 4 5





Jimmy Buffett - Pacing The Cage (Intro)
Album: Beach House on the Moon (1999)
Submitter: WildCard76 (151) on 7/28/03
Month Views: 29 | Total Views: 6,217
Moderator: guntemar | Report This Song?
Song Tools

Comment

Songbook

Kudos

Show Chords

Print

PACING THE CAGE
Jimmy Buffett
(Cockburn)
CD: Beach House On The Moon
1999 Margaritaville Records
Submitted by: Christopher R.
July 28, 2003

I have had a few requests for this intro. It's easy to learn, if you don't 
try using a pic. Just fingerpick this one...:-)

Capo 3 Fret

Intro:

    (C)                (G/B)               (F/A)

E--0-------------------3-------------------1-------------------1--------------
B--------------1--------------3------------------------1----------------1-----
G--------0--------------------------0------------0----------------------------
D-----2-----------2--------0----------0--------3----------3----------0----3---
A--3--------3----------2----------2--------0--------0--------------3----------
E--------------------------------------------------------------0--------------

    (C)                (G/B)               (F/A)     

E--0-------------------3-------------------1--------------------------------------
B--------------1--------------3------------------------1----------------1---------
G--------0--------------------------0------------0--------------0h2-----------2---
D-----2-----------2--------0----------0--------3----------3----------3---------3--
A--3--------3----------2----------2--------0--------0-----------0----------0------
E---------------------------------------------------------------------------------



any questions, just message me

Peace Out!
 Comments (click here to add a non-facebook comment)
Home | FAQs | Privacy | Terms | Contact
Top 100 Tab Sites