Give Kudos?
Are you sure you want to give kudos to WildCard76?

Add To Songbook?
Are you sure you want to add this song to your songbook?


3,378 bands | 16,073 songs
Search: Register FREE! | Login
Browse Songs:
Browse Bands:
Tool Panel
Discuss This Song

1 2 3 4 5





Jimmy Buffett - I Don't Know And I Don't Care (Chord)
Album: Beach House on the Moon (1999)
Submitter: WildCard76 (265) on 6/9/03
Month Views: 26 | Total Views: 3,870
Moderator: guntemar | Report This Song?
Song Tools

Comment

Songbook

Kudos

Show Chords

Print

I DON'T KNOW AND I DON'T CARE
Jimmy Buffett


INTRO

E---------------------------0---------------------------------------------
B---------------------------0---------------------------------------------
G-------------------------------------------------------------------------
D-----4/6/4--2--4/6/4--2----4-----2--4/6/4--2------4--2-------6--4--------
A------------------------------------------------2------2--4-------2------
E-------------------------------------------------------------------------

E---0----0-----------------------0------------------------------------0---------
B---0----0-----------------------0------------------------------------0---------
G--------2----------------------------------------------------------------------
D------------4/6/4--2--4/6/4--2--4---2--4/6/4--2-----4---2----6--4--------------
A-----0-------------------------------------------2----2--4--------4----0-------
E--------------------------------------------------------------------------2/4-- 
 Comments (click here to add a non-facebook comment)
Home | FAQs | Privacy | Terms | Contact
Top 100 Tab Sites