Give Kudos?
Are you sure you want to give kudos to WildCard76?

Add To Songbook?
Are you sure you want to add this song to your songbook?


3,350 bands | 15,891 songs
Search: Register FREE! | Login
Browse Songs:
Browse Bands:
Tool Panel
Discuss This Song

1 2 3 4 5





Jimmy Buffett - Grapefruit-juicy Fruit (Intro)
Album: A White Sport and a Pink Crustacean (1973)
Submitter: WildCard76 (273) on 4/26/03
Month Views: 62 | Total Views: 5,340
Moderator: guntemar | Report This Song?
Song Tools

Comment

Songbook

Kudos

Show Chords

Print

GRAPEFRUIT-JUICY FRUIT
Jimmy Buffet
(Buffett)

Intro
(just repeat this over and over until the 1st verse)

E-------------------------------------------------------------------
B-----4--5----------6-------5----4----5--------4--5-------------6---
G-----------------0---------------------------------------0---------
D-----4--5------5------------------------------4--5-----------------
A-----2--3---------------3----3----3----3------2--3-----3---3-------
E-------------------------------------------------------------------


E-----------------------------3---------------------------------
B-------5----4----5-----------0----0--0h1--0---1---1---4--5-----
G--------------------------3-------------------0---0------------
D--------------------------4---------------------------4--5-----
A----3----3----3----3--------------------------3---3---2--3-----
E--------------------------2--3---------------------------------
 Comments (click here to add a non-facebook comment)
Home | FAQs | Privacy | Terms | Contact
Top 100 Tab Sites