Give Kudos?
Are you sure you want to give kudos to WildCard76?

Add To Songbook?
Are you sure you want to add this song to your songbook?


3,371 bands | 16,005 songs
Search: Register FREE! | Login
Browse Songs:
Browse Bands:
Tool Panel
Discuss This Song

1 2 3 4 5





Jimmy Buffett - Fins (Solo)
Album: Volcano (1979)
Submitter: WildCard76 (168) on 6/9/03
Month Views: 40 | Total Views: 4,526
Moderator: guntemar | Report This Song?
Song Tools

Comment

Songbook

Kudos

Show Chords

Print

FINS
Jimmy Buffett

First Solo
(1st solo is guitar, 2nd is harmonica)

E------14--15--16-----16-----16-15-14-------------14-15-16---0---15p14-----
A--17---------------------------------17---17--17------------0---------17--
D--------------------------------------------------------------------------
G--------------------------------------------------------------------------
B--------------------------------------------------------------------------
E--------------------------------------------------------------------------


E--14----------------------------
B----17--15p14----15-------------
D---------------16---------------
G--------------------------------
B--------------------------------
E--------------------------------
 Comments (click here to add a non-facebook comment)
Home | FAQs | Privacy | Terms | Contact
Top 100 Tab Sites